Song name
# A B C D E F G H I J K L M N O P Q R S T U V W X Y Z

Adelitas Way - Last Stand Acoustic tab

Artist: Adelitas Way
Song  : Last Stand (Acoustic)

I watched youtube videos of them playing this acoustic and this sounds just
like how they play it. It sounds good with both their album version and
acoustic performances.
Enjoy! Please rate/ comment!

TUNING: Half-step down
        Eb/Ab/Db/Gb/Bb/Eb

Intro/ Verse 1:
Eb|--------0-------------------------------------------------|
Bb|----------------------2-------------0--------------0h2----|
Gb|------4---4---4-----4---4---4-----0---0---0------2----2---|
Db|----4-------4-----4-------4-----0-------0------2--------2-| x3 then
Ab|-2--------------0---------------------------0-------------|
Eb|------------------------------3---------------------------|

Eb|-0000-0000-3333-0000-0000-0000--------22-|
Bb|-3333-2222-3333-3333-3333-3333------2222-|
Gb|-4444-2222-0000-2222-0000-0000---33-3333-|
Db|-4444-2222-0000-2222-2222-2222-4444-4444-| x1
Ab|-2222-0000-2222-0000-2222-2222-4444-4444-|
Eb|-xxxx-0000-3333-0000-0000-0000-2222-2222-|

Chorus:
Eb|-3333-2222-0000-0000-|      |-----------0000-3333-0000-0000-3333-0000-|
Bb|-3333-3333-2222-2322-|      |-----------3333-3333-3333-2222-3333-3333-|
Gb|-0000-2222-2222-2222-|      |-7777-6666-0000-0000-4444-2222-0000-0000-|
Db|-0000-0000-2222-2222-| x2   |-7777-7777-2222-0000-4444-2222-0000-2222-|
Ab|-2222------0000-0000-| then |-5555-4444-2222-2222-2222-0000-2222-2222-|
Eb|-3333------0000-0000-|      |-----------0000-3333-xxxx-0000-3333-0000-|

Eb|-0000-0000-0~~~---------0-------|
Bb|-3333-2222-3~~~-------0---0-----|
Gb|-4444-2222-0~~~-----0-------0---|
Db|-4444-2222-2~~~---4-----------4-|
Ab|-2222-0000-2~~~-2---------------|
Eb|-xxxx-0000-0~~~-----------------|

Verse 2:
Eb|--------0-------------------------------------------------|
Bb|----------------------2-------------0--------------0h2----|
Gb|------4---4---4-----4---4---4-----0---0---0------2----2---|
Db|----4-------4-----4-------4-----0-------0------2--------2-| x2 then
Ab|-2--------------0---------------------------0-------------|
Eb|------------------------------3---------------------------|

Eb|-0000-0000-3333-0000-0000-0000--------22-|
Bb|-3333-2222-3333-3333-3333-3333------2222-|
Gb|-4444-2222-0000-2222-0000-0000---33-3333-|
Db|-4444-2222-0000-2222-2222-2222-4444-4444-| x1
Ab|-2222-0000-2222-0000-2222-2222-4444-4444-|
Eb|-xxxx-0000-3333-0000-0000-0000-2222-2222-|

Chorus:
Eb|-3333-2222-0000-0000-|      |-----------0000-3333-0000-0000-3333-0000-|
Bb|-3333-3333-2222-2322-|      |-----------3333-3333-3333-2222-3333-3333-|
Gb|-0000-2222-2222-2222-|      |-7777-6666-0000-0000-4444-2222-0000-0000-|
Db|-0000-0000-2222-2222-| x2   |-7777-7777-2222-0000-4444-2222-0000-2222-|
Ab|-2222------0000-0000-| then |-5555-4444-2222-2222-2222-0000-2222-2222-|
Eb|-3333------0000-0000-|      |-----------0000-3333-xxxx-0000-3333-0000-|

Eb|-0000-0000-0000-0000-|
Bb|-3333-2222-3333-3333-|
Gb|-4444-2222-0000-0000-|
Db|-4444-2222-2222-2222-|
Ab|-2222-0000-2222-2222-|
Eb|-xxxx-0000-0000-0000-|

Guitar Solo:
Eb|3333-2222-0000-0000-3333-2222-0000----0-------0-----------------------------------------------|
Bb|3333-3333-2222-2322-3333-3333-2222---00---------------------2-------------0-------------0h2---|
Gb|0000-2222-2222-2222-0000-2222-2222--333-----4---4---4-----4---4---4-----0---0---0-----2----2--|
Db|0000-0000-2222-2222-0000-0000-2222-4444---4-------4-----4-------4-----0-------0-----2--------2|
Ab|2222------0000-0000-2222------0000-4444-2-------------0---------------------------0-----------|
Eb|3333------0000-0000-3333------0000-2222-----------------------------3-------------------------|

Eb|-0~~~-0~~~-3~~~-~~~~--------00-|
Bb|-3~~~-2~~~-3~~~-~~~~------0000-|
Gb|-4~~~-2~~~-0~~~-~~~~---33-3333-|
Db|-4~~~-2~~~-0~~~-~~~~-4444-4444-|
Ab|-2~~~-0~~~-2~~~-~~~~-4444-4444-|
Eb|-x----0~~~-3~~~-~~~~-2222-2222-|

Final Chorus:
Eb|-3333-2222-0000-0000-|      |-----------0000-3333-0000-0000-3333-0000-|
Bb|-3333-3333-2222-2322-|      |-----------3333-3333-3333-2222-3333-3333-|
Gb|-0000-2222-2222-2222-|      |-7777-6666-0000-0000-4444-2222-0000-0000-|
Db|-0000-0000-2222-2222-| x2   |-7777-7777-2222-0000-4444-2222-0000-2222-|
Ab|-2222------0000-0000-| then |-5555-4444-2222-2222-2222-0000-2222-2222-|
Eb|-3333------0000-0000-|      |-----------0000-3333-xxxx-0000-3333-0000-|
    ^^^^
  First time through play
  only a single downstroke
  on the G (320033) then start
  strumming again on the D (xx0232)
Eb|-0000-0000-0000-0000-0~~~-0~~~---------0-|
Bb|-3333-2222-3333-3333-3~~~-2~~~-------0---|
Gb|-4444-2222-0000-0000-4~~~-2~~~-----0-----|
Db|-4444-2222-0000-2222-4~~~-2~~~---4-------|
Ab|-2222-0000-2222-2222-2~~~-0~~~-2---------|
Eb|-xxxx-0000-3333-0000-x----0~~~-----------|

Enjoy! Please rate/ comment!
Tap to rate this tab
# A B C D E F G H I J K L M N O P Q R S T U V W X Y Z