Adelitas Way - Last Stand tab

|-------------------------------------------------------------------------------------|
|--14-15-14-13------14-13-14-13------14b16--14-13-14-13-13~--------------13b14--14b15-|
|--------------13---------------13-----------------------------17-17b19---------------|
|-------------------------------------------------------------------------------------|
|-------------------------------------------------------------------------------------|
|-------------------------------------------------------------------------------------|

|---------------------------------------------------------------------------------------|
|--15b17----17-18-17-16------17-16-17-16------17b18--17-18-17-16------13-15-16-14-16-17-|
|-----------------------16---------------16----------------------16---------------------|
|---------------------------------------------------------------------------------------|
|---------------------------------------------------------------------------------------|
|---------------------------------------------------------------------------------------|

|--16
|----
|----
|----
|----
|----
Tap to rate this tab
 
# A B C D E F G H I J K L M N O P Q R S T U V W X Y Z