Song name
# A B C D E F G H I J K L M N O P Q R S T U V W X Y Z

Adelitas Way - Its A New Day tab

Enjoy because this is like the only tab for this song on the web so far. :)

Tabbed by England5

Intro
e|------------------------------------------|
B|------------------------------------------|
G|------------------------------------------|
D|1111-44-66----------4444-66-88------------|
A|1111-44-66----------4444-66-88------------|
E|1111-44-66----------4444-66-88------------|

Chorus Part 1 x4
|-------------------------------------------|
|-------------------------------------------|
|-------------------------------------------|
|1111-44-66-4444-66-88----------------------|
|1111-44-66-4444-66-88----------------------|
|1111-44-66-4444-66-88----------------------|

Chorus Part 2
|-------------------------------------------|
|-------------------------------------------|
|-------------------------------6666--------|
|99999999-66666666-111111111111-6666--------|
|99999999-66666666-111111111111-4444--------|
|99999999-66666666-111111111111-------------|

|-------------------------------------------|
|-------------------------------------------|
|-------------------------------------------|
|99999999-66666666-44444444-8-8-8-8-8-8-8-8-|
|99999999-66666666-44444444-8-8-8-8-8-8-8-8-|
|99999999-66666666-44444444-8-8-8-8-8-8-8-8-|

Chorus Part 1 x2

Verse x2
|-------------------------------------------|
|-------------------------------------------|
|-------------------------------------------|
|11111111-44444444-66666666-44444444--------|
|11111111-44444444-66666666-44444444--------|
|11111111-44444444-66666666-44444444--------|

|-------------------------------------------|
|-------------------------------------------|
|------------------6-6-6-6-4-4-4-4----------|
|11111111-44444444-6-6-6-6-4-4-4-4----------|
|11111111-44444444-4-4-4-4-2-2-2-2----------|
|11111111-44444444--------------------------|

Chorus Part 1 x4

Chorus Part 2 x2

Bridge x2
|-------------------------------------------|
|-------------------------------------------|
|-------------------------------------------|
|1----4------6------------------------------|
|1----4------6------------------------------|
|1----4------6------------------------------|

|-------------------------------------------|
|-------------------------------------------|
|-----------6-------------------------------|
|1----4-----6-------------------------------|
|1----4-----4-------------------------------|
|1----4-------------------------------------|

Chorus Part 1 x8

Outro 
|-------------------------------------------|
|-------------------------------------------|
|-------------------------------------------|
|1111-44-66-4444-66-88---1------------------|
|1111-44-66-4444-66-88---1------------------|
|1111-44-66-4444-66-88---1------------------|
Tap to rate this tab
 
# A B C D E F G H I J K L M N O P Q R S T U V W X Y Z