Song name
# A B C D E F G H I J K L M N O P Q R S T U V W X Y Z

Adelitas Way - Sick tab

Adelitas Way
"Sick"
Tuning Drop C
Took me a while but I finally figured out the whole song.This is what I
heard.If you need help,then listen to the song.
Guitar 1=Lead Guitar
Guitar 2=Rhythm Guitar

[Intro] [Guitar 1](Optional)
E----------------------------------------------------------------|
B----------------------------------------------------------------|
G----------------------------------------------------------------|
D----------------------------------------------------------------|
A----------------------------------------------------------------|
E-000000000000000------------------------------------------------|

[Guitar 1]
E-----------------------------------------------------------------|
B-----------------------------------------------------------------|
G-----------------------------------------------------------------|
D--------------00----00-------------------------------------------|
A--------------00----00-------------------------------------------|
E\\\\\\\\\\\\\-00----00-------------------------------------------|
(Pick slide from 1st fret to 7 or 8)

[Guitar 2]

E------------------------------------------------------------------|
B------10-----10------8------8------10----10-----------------------|
G---77------7------77------7-----77----7------7777-9999-10101010---|
D-0-------------0--------------0-----------------------------------|
A------------------------------------------------------------------|
E------------------------------------------------------------------|

[Guitar 1] (3x)
(Play octives 3 times only)
E-----------------------------------------------------------------------|
B-----------------------------------------------------------------------|
G-7777--10101010--12121212-5555-----------------------------------------|
D--------------------------------(Then strum 5)---------5---------------|
A-5555--8-8-8-8--10101010--3333-------------------------5---------------|
E-------------------------------------------------------5---------------|

[Guitar 2]
E--------------------------------------------------------------------------|
B--------------------------------------------------------------------------|
G--------------------------------------------------------------------------|
D-00--XX--00--XX--00--XX--00--650653-00--XX--00--XX--00--XX--5-------------|
A-00--XX--00--XX--00--XX--00--650653-00--XX--00--XX--00--XX--5-------------|
E-00--XX--00--XX--00--XX--00--650653-00--XX--00--XX--00--XX--5-------------|

 Verse 1[Both Guitars]
E---------------------------------------------------------------------------|
B---------------------------------------------------------------------------|
G---------------------------------------------------------------------------|
D-00--XX--00--XX--00--XX--650653-00--XX--00--XX--00-XX--00-650653-5---------|
A-00--XX--00--XX--00--XX--650653-00--XX--00--XX--00-XX--00-650653-5---------|
E-00--XX--00--XX--00--XX--650653-00--XX--00--XX--00-XX--00-650653-5---------|

Chorus   [Guitar 1]
E---------------------------------------------------------------------------|
B---------------------------------------------------------------------------|
G---------------------------------------------------------------------------|
D-00000000-33333333-88888888-55555555---------------------------------------|
A-00000000-33333333-88888888-55555555---------------------------------------|
E-00000000-33333333-88888888-55555555---------------------------------------|

[Guitar 2] (2x)
E---------------------------------------------------------------------------|
B------10------10-------8-----8-------6----6-------8----8-------------------|
G---77------7-------77------7------77---7-------77----7---------------------|
D-0---------------0-------------0------------0------------------------------|
A---------------------------------------------------------------------------|
E---------------------------------------------------------------------------|

Post-Chorus 1 [Guitar 1] (3x)
E---------------------------------------------------------------------------|
B---------------------------------------------------------------------------|
G-7777--10101010-12121212--5555------------5--------------------------------|
D-------------------------------(Then 5)---5--------------------------------|
A-5555--8-8-8-8--10101010--3333------------5--------------------------------|
E---------------------------------------------------------------------------|

[Guitar 2]
E---------------------------------------------------------------------------|
B---------------------------------------------------------------------------|
G---------------------------------------------------------------------------|
D-00--XX--00--XX--00--XX--00--650653--00--XX--00--XX--00--XX--5-------------|
A-00--XX--00--XX--00--XX--00--650653--00--XX--00--XX--00--XX--5-------------|
E-00--XX--00--XX--00--XX--00--650653--00--XX--00--XX--00--XX--5-------------|

Play Verse

Play Chorus

Bridge [Guitar 1]
E--------------------------------------------------------------------------|
B--------------------------------------------------------------------------|
G5555--7777----------------------------------------------------------------|
D------------(Play 8 times 2x )--------------------------------------------|
A3333--5555----------------------------------------------------------------|
E--------------------------------------------------------------------------|

[Guitar 2] (2x)
E--------------------------------------------------------------------------|
B--------------------------------------------------------------------------|
G--------------------------------------------------------------------------|
D-8888888888888888-5555555555555555----------------------------------------|
A-8888888888888888-5555555555555555----------------------------------------|
E-8888888888888888-5555555555555555----------------------------------------|

Final Pre-Chorus (Both Guitars)
E---------------------------------------------------------------------------|
B---------------------------------------------------------------------------|
G---------------------------------------------------------------------------|
D-00--00----5---------------------------------------------------------------|
A-00--00----5---------------------------------------------------------------|
E-00--00----5- \\\\\\\\\\\\\------------------------------------------------|
               (Pick slide from 1st fret to 8 or 7)

Play Chorus

Post-Chorus 2[Guitar 1)
E---------------------------------------------------------------------|
B---------------------------------------------------------------------|
G---------------------------------------------------------------------|
D-00000000-33333333-88888888-55555555---------------------------------|
A-00000000-33333333-88888888-55555555---------------------------------|
E-00000000-33333333-88888888-55555555---------------------------------|

[Guitar 2]
plays Post-Chorus 1

Both guitars Play all of Post-Chorus 1 again and end with 0 power chord after strumming 5th fret.
Tap to rate this tab
# A B C D E F G H I J K L M N O P Q R S T U V W X Y Z