Song name
# A B C D E F G H I J K L M N O P Q R S T U V W X Y Z

Adelitas Way - Alive tab

Artist: Adelitas Way
Song: Alive
Tabbed by: callumfrew97

Capo first fret.
Standard tuning (EADGBe)


Intro -> 00:00 - 00:07

e|-0-0-0-0-0-0-0-0-|  -palm muting all
B|-1-1-1-1-1-1-1-1-| /	
G|-0-0-0-0-0-0-0-0-|/
D|-2-2-2-2-2-2-2-2-|\
A|-3-3-3-3-3-3-3-3-| \
E|-----------------|  -play twice
   C


Verse 1 -> 00:08 - 00:48

pm . . . . . . . . . . . . . . . .
e|-0-0-0-0-3-3-3-3-1-1-1-1-0-0-0-0-| |play 10 times
B|-1-1-1-1-0-0-0-0-1-1-1-1-1-1-1-1-| |
G|-2-2-2-2-0-0-0-0-2-2-2-2-0-0-0-0-| |
D|-2-2-2-2-0-0-0-0-3-3-3-3-2-2-2-2-| |
A|-0-0-0-0-2-2-2-2-3-3-3-3-3-3-3-3-| |
E|---------3-3-3-3-----------------| |
   Am       G       F       C


Pre-Chorus -> 00:48 - 01:00

pm . . . . . . 
e|-0-0-0-0-1-1-|x2|-1-|<-
B|-1-1-0-0-1-1-|  |-1-|<-
G|-0-0-0-0-2-2-|  |-2-|<-
D|-2-2-2-2-3-3-|  |-3-|<-play this on after second time
A|-3-3-2-2-3-3-|  |-3-|<-
E|-----0-0-----|  |-1-|<-
   C  Em   F       F5


Chorus -> 01:00 - 01:30

pm
e|-------------------------------------------------|
B|-------------------------------------------------|
G|-5-5-5-5-5-5-5-5---------------------------------|
D|-5-5-5-5-5-5-5-5-5-5-5-5-5-5-5-5-3-3-3-3-3-3-3-3-|
A|-3-3-3-3-3-3-3-3-5-5-5-5-5-5-5-5-3-3-3-3-3-3-3-3-|
E|-----------------3-3-3-3-3-3-3-3-1-1-1-1-1-1-1-1-|
   C5              G5              F5
 
pm
e|-----------------0-0-0-0-0-0-0-0-3-3-3-3-3-3-3-3-|
B|-----------------1-1-1-1-1-1-1-1-0-0-0-0-0-0-0-0-|
G|-----------------2-2-2-2-2-2-2-2-0-0-0-0-0-0-0-0-|
D|-2-2-2-2-2-2-2-2-2-2-2-2-2-2-2-2-0-0-0-0-0-0-0-0-|
A|-2-2-2-2-2-2-2-2-0-0-0-0-0-0-0-0-2-2-2-2-2-2-2-2-|
E|-0-0-0-0-0-0-0-0-----------------3-3-3-3-3-3-3-3-|
   E5              Am              G

pm
e|-1-1-1-1-1-1-1-1-----------------|
B|-1-1-1-1-1-1-1-1-----------------|
G|-2-2-2-2-2-2-2-2-----------------|
D|-3-3-3-3-3-3-3-3-5-5-5-5-5-5-5-5-|
A|-3-3-3-3-3-3-3-3-5-5-5-5-5-5-5-5-|
E|-----------------3-3-3-3-3-3-3-3-|
   F               G5

pm
e|-------------------------------------------------|
B|-------------------------------------------------|
G|-5-5-5-5-5-5-5-5---------------------------------|
D|-5-5-5-5-5-5-5-5-5-5-5-5-5-5-5-5-3-3-3-3-3-3-3-3-|
A|-3-3-3-3-3-3-3-3-5-5-5-5-5-5-5-5-3-3-3-3-3-3-3-3-|
E|-----------------3-3-3-3-3-3-3-3-1-1-1-1-1-1-1-1-|
   C5              G5              F5
 
pm
e|-----------------0-0-0-0-0-0-0-0-3-3-3-3-3-3-3-3-|
B|-----------------1-1-1-1-1-1-1-1-0-0-0-0-0-0-0-0-|
G|-----------------2-2-2-2-2-2-2-2-0-0-0-0-0-0-0-0-|
D|-2-2-2-2-2-2-2-2-2-2-2-2-2-2-2-2-0-0-0-0-0-0-0-0-|
A|-2-2-2-2-2-2-2-2-0-0-0-0-0-0-0-0-2-2-2-2-2-2-2-2-|
E|-0-0-0-0-0-0-0-0-----------------3-3-3-3-3-3-3-3-|
   E5              Am              G

pm
e|-1-1-1-1-1-1-1-1-----------------|
B|-1-1-1-1-1-1-1-1-----------------|
G|-2-2-2-2-2-2-2-2-----------------|
D|-3-3-3-3-3-3-3-3-5-5-5-5-5-5-5-5-|
A|-3-3-3-3-3-3-3-3-5-5-5-5-5-5-5-5-|
E|-----------------3-3-3-3-3-3-3-3-|
   F               G5


|-Play Verse 1 Again----------------------------|
|-Then Play the Pre-chorus and the Chorus again-|


Bridge -> 02:42 - 02:58

pm
e|-1-1-1-1-1-1-1-1-0-0-0-0-0-0-0-0-|
B|-2-2-2-2-2-2-2-2-1-1-1-1-1-1-1-1-|
G|-3-3-3-3-3-3-3-3-0-0-0-0-0-0-0-0-|
D|-3-3-3-3-3-3-3-3-2-2-2-2-2-2-2-2-|
A|-1-1-1-1-1-1-1-1-3-3-3-3-3-3-3-3-|
E|---------------------------------|
   F               C               

pm
e|-0-0-0-0-0-0-0-0-3-3-3-3-3-3-3-3-|
B|-1-1-1-1-1-1-1-1-0-0-0-0-0-0-0-0-|
G|-2-2-2-2-2-2-2-2-0-0-0-0-0-0-0-0-|
D|-2-2-2-2-2-2-2-2-0-0-0-0-0-0-0-0-|
A|-0-0-0-0-0-0-0-0-2-2-2-2-2-2-2-2-|
E|-0-0-0-0-0-0-0-0-3-3-3-3-3-3-3-3-|
   Am              G

|-Play entire bridge two times------------------------------|
|-Play the chorus twice but finish on a C5 rather than a G5-|
Tap to rate this tab
# A B C D E F G H I J K L M N O P Q R S T U V W X Y Z