Guitaretab - guitar tabs
Song name
# A B C D E F G H I J K L M N O P Q R S T U V W X Y Z
Home / A / Adem / Statued tab

Adem - Statued tab

-------------------------------------------------------------------------------
			     STATUED - Adem
-------------------------------------------------------------------------------
Tabbed by: fretdontfret
Email:
http://www.adem.tv/site/

as heard on the soundtrack to dead man's shoes.

Tuning: standard

for the first bit, try gently tapping a metal slide against the desired string to
replicate adem's sound...not exactly the same but similar!

i tried to get it as close as possible but expect there will be mistakes!

e|--------------------------------....---------------------------------------|
B|--------------------------------....---------------------------------------|
G|--------------------------------....---------------------------------------|
D|----------------------2-3---2---....--------------2-3---2------------------|
A|----------------3-3-3-----------....--------3-3-3--------------------------|
E|--------------------------------....---------------------------------------|


e|-----------------------------0--------1------------------------------------|
B|-------------1-------1---1---1--------1------------1-----3---1-----1-------|
G|-----0h2-------0-----0---------0----2---2------0-------0---0----0h2-2p0----|
D|-0h2-----0---------2---2---2------3----------2---2---2---------------------|
A|-----------3-----3-------3-----------------3-------------------------------|
E|---------------------------------------------------------------------------|

                   watch...         bruising....

e|-------------0-------1---------------------0-----------------1-------0-----|
B|-----1---1---1-------1-----------1-----3-----3-----1---------1-------1-----|
G|-----0---------0---2---2-----0---0---0---0-------0---------2---2---2---2---|
D|---2---2---2-----3---------2---2---2-----------2-----0-2-3-------3---------|
A|-3-------3---------------3-------------------------------------------------|
E|---------------------------------------------------------------------------|

   bellies...      water....                             they swell...

e|--------------------3-----------
B|---0----------0h1-----1-0-------|
G|-----0--0---0----0--------0---0-|
D|----------0-----------------0---|
A|--------------------------------|
E|-3------------3-----------------|



e|-------------0--------1---------------------0----------------|
B|-----1---1---1--------1------------1-----3----1------1-------|
G|-----0---------0----2---2------0-------0---0----0-0h2-2p0----|
D|---2---2---2------3----------2---2---2-------------------2---|
A|-3-------3-----------------3---------------------------------|
E|-------------------------------------------------------------|

   pull....         around...

e|-------------0--------1---------------------0----------------|
B|-----1---1---1--------1------------1-----3----1------1-------|
G|-----0---------0----2---2------0-------0---0----0-0h2-2p0----|
D|---2---2---2------3----------2---2---2-------------------2---|
A|-3-------3-----------------3---------------------------------|
E|-------------------------------------------------------------|


   feel...          through....
[ Tab from: http://www.guitaretab.com/a/adem/116419.html ]
e|-----1-------0-------------------------3---------------------|
B|-----1-------1--------0-----0-----0h1----1-0-----------------|
G|---2---2---2---2----0---0-----0------0-------0---0-----------|
D|-3-------3----------------------0--------------0-------------|
A|-------------------------------------------------------------|
E|------------------3-------3-------3--------------------------|

   scraping....


e|-------------0-------------------1-----1----1-0--------------|
B|-----1---1---1-------1-------1-------1----------3-1----------|
G|-----0---------0---0---0---2---2---2----------------0--------|
D|---2---2---2-----2-------3-----------------------------------|
A|-3-------3---------------------------------------------------|
E|-------------------------------------------------------------|

   hold her...

e|-------------0-------------------1-----1----1-0--------------|
B|-----1---1---1-------1-------1-------1----------3-1----------|
G|-----0---------0---0---0---2---2---2----------------0--------|
D|---2---2---2-----2-------3-----------------------------------|
A|-3-------3---------------------------------------------------|
E|-------------------------------------------------------------|

   hold him...


e|-------------0--------1------------------------1-----------0-------|
B|-----1---1---1--------1------------1-----1-----1-----------1-------|
G|-----0---------0----2---2------0---0---0-----2---2---2-----------0-|
D|---2---2---2------3----------2---2---2-----3-------3-----2---0-2---|
A|-3-------3-----------------3---------------------------3-----------|
E|-------------------------------------------------------------------|

   let this...                            that you...


e|-----1-----------0----------1----------------------------------------------|
B|-----1-----------1----------1-----------1--1------0------------------------|
G|---2---2---2----------0---2---2---2-----0-------0---------0-------0--------|
D|-3-------3-----2--0-2---3-------3-----2-----------------0-------0---0------|
A|-------------3----------------------3------3-------------------------------|
E|----------------------------------------------3---3---3---3---3------------|

   you won't...         that you...             life...      


e|------3---------------------------------------------------------------------|
B|-0h1------1---0-------1-----------------------------------------------------|
G|----0-----------------------------------------------------------------------|
D|------------------2-3-------------------------------------------------------|
A|----------------------3............h2---------------------------------------|
E|-3------3---3---------------------------------------------------------------|

                   till you...die

repeat same structure for last verse (cutting out the repeated section of music)

Lyrics:

watch the dark clouds bruising
bellies flushed with water
they swell above your heads

pull your coats around you
feel the wind cut through them
scraping at your bones

hold her in the falling rain
hold him like you've never done
let this be a moment
that you won't forget
that you won't forget
that you won't forget
all your life
'til you die

statued close together
a precious, tender moment
a solemn, sombre time
					
hold her in the falling rain
hold him like you've never done
let this be a moment
that you won't forget
that you won't forget
that you won't forget
all your life
'til you die

| /  slide up
| \  slide down
| h  hammer-on
| p  pull-off
| ~  vibrato
| +  harmonic
| x  Mute note
===============================================================================
Related for Statued tab