Song name
# A B C D E F G H I J K L M N O P Q R S T U V W X Y Z

Adema - What Doesnt Kill Us tab

Adema
What Doesn't kill us - Intro

|--------------------------------------|
|--------------------------------------|
|--------------------------------------|
|--------------------------------------|
|--------------------------------------|
|-0-2---0-2---0-2--0-3---0-3---0-3-----|

|------------------------------------|
|------------------------------------|
|------------------------------------|
|-0-2---0-2---0-2--0-3---0-3---0-3---|
|-0-2---0-2---0-2--0-3---0-3---0-3---|
|-0-2---0-2---0-2--0-3---0-3---0-3---|

|---------------------------------------|
|---------------------------------------|
|---------------------------------------|
|-0-2---0-2---0-2--0-3---0-3---0-2-4-4--|
|-0-2---0-2---0-2--0-3---0-3---0-2-4-4--|
|-0-2---0-2---0-2--0-3---0-3---0-2-4-4--|
Tap to rate this tab
 
# A B C D E F G H I J K L M N O P Q R S T U V W X Y Z