Guitaretab - guitar tabs
Song name
# A B C D E F G H I J K L M N O P Q R S T U V W X Y Z
Home / A / Adema / Promises tab

Adema - Promises tab

Adema - Promises
tabed by T.B.K.

intro/verse - acoustic    (without timing) - gtr1
Eb ---------------------------------------------------|
Bb ---------------------------------------------------|
Gb -x--x-x-x-x-6-6-6-6-6-6-6-6-6-6-6-6-6-7-7-7-7-7-7--|
Db -4--4-4-4-4-6-6-6-6-6-6-6-6-6-6-6-6-6-7-7-7-7-7-7--|
Ab -4--4-4-4-4-4-4-4-4-4-4-4-4-4-4-4-4-4-5-5-5-5-5-5--|
db -4--4-4-4-4-6-6-6-6-6-6-6-6-6-6-6-6-6-7-7-7-7-7-7--|

gtr2 - clean tone
Eb --------------------------------------------|
Bb ---9-10-10-9-----------------9-10-10-10-10--|
Gb --------------------------------------------|
Db --------------------------------------------|
Ab --------------------------------------------|
db --------------------------------------------|

gtr2 - distorted - same as gtr1 intro/verse

gtr2 verse - clean 2x
Eb -----------------------------------------------10-10-10-10-10-10--|
Bb -9-10-10-10-9--------9-10-10-10-----------------------------------|
Gb ------------------------------------------------------------------|
Db ------------------------------------------------------------------| 2x
Ab ------------------------------------------------------------------|
db ------------------------------------------------------------------|
[ Tab from: http://www.guitaretab.com/a/adema/131421.html ]
pre-chorus  gtr1 - distorted
Eb ------------------------------|
Bb ------------------------------|
Gb ------------------------------|
Db -4-4----4-4----4-4----4-4-4-4-|
Ab -4-4----4-4----4-4----4-4-4-4-|
db -4-4----4-4----4-4----4-4-4-4-|

            gtr2 - distorted
Eb ---------------------------------|
Bb ---------------------------------|
Gb ---------------------------------|
Db -4-4-4/2-4-4-4/2-4-4-4/2-4-4-4-4-|
Ab -4-4-----4-4-----4-4-----4-4-4-4-|
db -4-4-----4-4-----4-4-----4-4-4-4-|

chorus - gtr1 acoustic and gtr2 distorted
Eb -------------------------------------|
Bb -------------------------------------|
Gb -6-6-6-6--9-9-9-9--4-4-4-4--2-2-2-2--|
Db -4-4-4-4--7-7-7-7--2-2-2-2--0-0-0-0--| 2x
Ab -4-4-4-4--7-7-7-7--2-2-2-2--0-0-0-0--|
db -4-4-4-4--7-7-7-7--2-2-2-2--0-0-0-0--|

bridge both guitars distorted
Eb ---------------------------------|
Bb ---------------------------------|
Gb ---------------------------------|
Db -4-4-4-4-2-(4x)--0-0-------------|  2x
Ab -4-4-------------0-0-4-4-0-(4x)--|
db -4-4-------------0-0-------------|

Eb -------------------------------------------|
Bb -------------------------------------------|
Gb -------------------------------------------|
Db -9-9-9-9-9-9-9-9--12-12-12-12-12-12-12-12--|
Ab -9-9-9-9-9-9-9-9--12-12-12-12-12-12-12-12--|
db -9-9-9-9-9-9-9-9--12-12-12-12-12-12-12-12--|

last note
Eb ----
Bb ----
Gb -6--
Db -4--
Ab -4--
db -4--
Related for Promises tab
Advertisement will be closed in 10 seconds