Song name
# A B C D E F G H I J K L M N O P Q R S T U V W X Y Z

Adema - Trust tab

-------------------------------------------------------------------------------
			     TRUST - adema
-------------------------------------------------------------------------------


Tuning: C, G, C, F, A, d

This starts at about 13 seconds into the song.  I could have too many of some notes and 
enough of others because it is played so fast.

d|--------------------------------------------------------------------------|
A|--------------------------------------------------------------------------|
F|--------------------------------------------------------------------------|
C|--0-0-0-0-0-0-7-7-7-7-3-3-3-3-0-0-0-0-0-0-0-0-0-0-1-1-1-1-5-5-7-7-8-8-8-8-|
G|--0-0-0-0-0-0-7-7-7-7-3-3-3-3-0-0-0-0-0-0-0-0-0-0-1-1-1-1-5-5-7-7-8-8-8-8-|
C|--0-0-0-0-0-0-7-7-7-7-3-3-3-3-0-0-0-0-0-0-0-0-0-0-1-1-1-1-5-5-7-7-8-8-8-8-|

d|--------------------------------------------------------------------------|
A|--------------------------------------------------------------------------|
D|--------------------------------------------------------------------------|
C|-7-7-7-7-7-7-8-8-5-5-1-1-1-1----------------------------------------------|
G|-7-7-7-7-7-7-8-8-5-5-1-1-1-1----------------------------------------------|
C|-7-7-7-7-7-7-8-8-5-5-1-1-1-1----------------------------------------------|

| /  slide up
| \  slide down
| h  hammer-on
| p  pull-off
| ~  vibrato
| +  harmonic
| x  Mute note
===============================================================================
Tap to rate this tab
 
# A B C D E F G H I J K L M N O P Q R S T U V W X Y Z