Song name
# A B C D E F G H I J K L M N O P Q R S T U V W X Y Z

Adema - Tornado tab

------------------------------------------------------------------------------------
			     Tornado - Adema
------------------------------------------------------------------------------------
Tabbed by: Stevie B
Email: stevie_b_@msn.com

Tuning: Drop D (DADGBe)

1st guitar (distorted)
e|-----------------------------------------------------------------|	
B|-----------------------------------------------------------------|	
G|-----------------------------------------------------------------|	
D|-5-5-5-5-5-4-4---------------------------------------------------|	
A|-3-3-3-3-3-2-2-2-2-2-2-2-2-5-5-5-5-0-0-0-0-0-0-0-0-0-0-0-0-0-0-0-| x2 
D|---------------2-2-2-2-2-2-5-5-5-5-0-0-0-0-0-0-0-0-0-0-0-0-0-0-0-|	
   ' ' ' ' ' ' ' ' ' ' ' ' ' ' ' ' ' ' ' ' ' ' ' ' ' ' ' ' ' ' ' '

|-------|
|-------|
|-------|2nd time instead of last four notes.
|-7-7---|not palm muted.
|-5-5-0-|
|-----0-|

2nd guitar (clean) - come in 2nd time around
e|------------------------------------------------------|
B|------------------------------------------------------|
G|------------------------------------------------------|
D|------------------------------------------------------|
A|-3---2---3---2---3---5-3--2--3---2---3---2---3-2----0-|
D|---5---5---5---5---5-----------5---5---5---5-----5--0-|


Pre-verse
e|-----------------------------------------------------------------|
B|-----------------------------------------------------------------|
G|-----------------------------------------------------------------|
D|-----------------------------------------------------------------|
A|-----2-----2---2-----2-----2---2-----2-----2---2-----3-----------|
D|-2-2---2-2---2---0-0---0-0---0---2-2---2-2---2---0-0---0-5-5-5-0-|
   ' '   ' '   '   ' '   ' '   '   ' '   ' '   '   ' '   '

Verses
1st and 3rd time
e|-----------------------------------------------------------------|
B|-----------------------------------------------------------------|
G|-----------------------------------------------------------------|
D|-----------------------------------------------------------------|
A|-----2-----2---2-----2-----2---2-----2-----2---2-----3-----------|
D|-2-2---2-2---2---0-0---0-0---0---2-2---2-2---2---0-0---0-5-5-5-0-|
   ' '   ' '   '   ' '   ' '   '   ' '   ' '   '   ' '   '

2nd time
e|-----------------------------------------------------------------|
B|-----------------------------------------------------------------|
G|-----------------------------------------------------------------|
D|-----------------------------------------------------------------|
A|-----2-----2---2-----2-----2---2-----2-----2---2-0-0-0-0---------|
D|-2-2---2-2---2---5-5---5-5---5---0-0---0-0---0-----------0-0-0-0-|
   ' '   ' '   '   ' '   ' '   '   ' '   ' '   '
4th time
e|-----------------------------------------------------------------|
B|-----------------------------------------------------------------|
G|-----------------------------------------------------------------|
D|-------------------------------------------------2-2-2-2-7-7-7-7-|
A|-----2-----2---2-----2-----2---2-----2-----2---2-0-0-0-0-5-5-5-5-|
D|-2-2---2-2---2---5-5---5-5---5---0-0---0-0---0-------------------|
   ' '   ' '   '   ' '   ' '   '   ' '   ' '   '


Chorus
e|-----------------------------------------------------------------|	
B|-----------------------------------------------------------------|	
G|-5-5-5-5-5-4-4---------------------------------------------------|	
D|-5-5-5-5-5-4-4-2-2-2-2-2-2-5-5-5-5-0-0-0-0-0-0-0-0-0-0-0-0-0-0-0-| x4	
A|-3-3-3-3-3-2-2-2-2-2-2-2-2-5-5-5-5-0-0-0-0-0-0-0-0-0-0-0-0-0-0-0-|	
D|---------------2-2-2-2-2-2-5-5-5-5-0-0-0-0-0-0-0-0-0-0-0-0-0-0-0-|	

|---------------|
|---------------|
|---------------|2nd guitar plays this instead 
|---------------|of last 7 notes 2nd time
|-----0-0-2-2-3-|
|-5-5-----------|


After 1st chorus
e|--------------------------------------------|
B|-----12-----12---12-------12-------12----12-|
G|-9-9----9-9----9----------------------------|
D|--------------------10-10----10-10----10----|
A|--------------------------------------------|
D|--------------------------------------------|
   ' '    ' '    '    '  '     '  '     '

2nd guitar, 2nd chorus, last repeat, instead of last 7 notes.
e|----------------------------------|
B|----------------------------------|
G|----------------------------------|
D|----------------------------------|
A|-----0-0-2-2-3-3-5-5-7-7-9-9-12-\-|
D|-5-5------------------------------|

e|---------------------------------|
B|---------------------------------|
G|---------------------------------|
D|-5-5-----------------------------|
A|-5-5-----2-------2-------2-------|
D|-5-5-4h5---5-4h5---5-4h5---5-4-0-|


e|---------------------------------|
B|---------------------------------|
G|---------------------------------|
D|-5-5-----------------------------|
A|-5-5-----2-------2-------2-3-----|
D|-5-5-4h5---5-4h5---5-4h5-----4-0-|

e|-------------------------------|
B|-------------------------------|
G|-------------------------------|
D|-------------------------------|
A|-----2-2-3-3-0-0-2-2-----0-0---|
D|-0-0-----------------5-5-----4-|

e|---------------------------------------------------------------|
B|---------------------------------------------------------------|
G|-2-2--2-2-2--2-2-2--2-2-2-2-4-4-4-4-4-4-4-4-4-4-7-7-7-7-9-9-12-|
D|-2-2--2-2-2--2-2-2--2-2-2-2-4-4-4-4-4-4-4-4-4-x-x-x-x-x-x-x-x--|
A|-0-0--0-0-0--0-0-0--0-0-0-0-2-2-2-2-2-2-2-2-2-2-5-5-5-5-7-7-10-|
D|---------------------------------------------------------------|

After last chorus
e|---------------------------------------------------------------------------------|
B|---------------------------------------------------------------------------------|
G|-5-5-5-5-5-7-7-9-9-9-9-9-9-12-12-12-12-11-11-11-11-11-12-12-12-12-11-11-11-11-11-|
D|-x-x-x-x-x-x-x-x-x-x-x-x-x-x--x--x--x--x--x--x--x--x--x--x--x--x--x--x--x--x--x--|
A|-3-3-3-3-3-5-5-7-7-7-7-7-7-10-10-10-10-9--9--9--9--9--10-10-10-10-9--9--9--9--9--|
D|---------------------------------------------------------------------------------|

e|----------------------------------------------------------------------------|
B|----------------------------------------------------------------------------|
G|-5-5-5-5-5-7-7-9-9-9-9-12-12-12-12-11-11-11-11-11-12-12-12-12-11-11-9-9-9-9-|
D|-x-x-x-x-x-x-x-x-x-x-x-x--x--x--x--x--x--x--x--x--x--x--x--x--x--x--x-x-x-x-|
A|-3-3-3-3-3-5-5-7-7-7-7-10-10-10-10-9--9--9--9--9--12-12-10-10-9--9--7-7-7-7-|
D|----------------------------------------------------------------------------|

End
e|-------------------|
B|-------------------|
G|-5---4-------------|
D|-5---4-2---5-5-0-0-|
A|-3---2-2---5-5-0-0-|
D|-------2---5-5-0-0-|


| '  palm mute
| /  slide up
| \  slide down
| h  hammer-on
| p  pull-off
| ~  vibrato
| +  harmonic
| x  Mute note
====================================================================================
Tap to rate this tab
# A B C D E F G H I J K L M N O P Q R S T U V W X Y Z