Song name
# A B C D E F G H I J K L M N O P Q R S T U V W X Y Z

Adema - Blame Me tab

Adema - Blame Me
Tuning: Drop D - D A D G B e

Intro: 0:00
e|---------------------------------------------------------------------|
B|---------------------------------------------------------------------|
G|---------------------------------------------------------------------|
D|------------4-------------------4-------------4-------------------2--|
A|-------4---------4---------4-----------------------4---------4-------|
D|--4-------------------0------------------0--------------0------------|

Verse: 0:27
e|----------------12--------------------------12-----------------------|
B|--9--10-----------------------9--10---------------10---12--10--9-----|
G|-------------9---------------------------9-----999--9-------------9--|
D|---------------------------------------------------------------------|
A|---------------------------------------------------------------------|
D|---------------------------------------------------------------------|

Chorus: 0:43
e|---------------------------------------------------------------------|
B|---------------------------------------------------------------------|
G|-----------2-----------------------------------2---------------------|
D|--4--------2--------2--------0--------4--------2--------2--------0---|
A|--4--------0--------2--------0--------4--------0--------2--------0---|
D|--4-----------------2--------0--------4-----------------2--------0---|

Bridge: 2:19
e|---------------------------------------------------------------------|
B|--4-4-4-4-4-4-4-4-4-4-4-4-4-4-4-4------------------------------------|
G|--4-4-4-4-4-4-4-4-4-4-4-4-4-4-4-4------------------------------------|
D|--4-4-4-4-4-4-4-4-4-4-4-4-4-4-4-4------------------------------------|
A|--2-2-2-2-2-2-2-2-2-2-2-2-2-2-2-2------------------------------------|
D|---------------------------------------------------------------------|

Bridge: 2:36
e|---------------------------------------------------------------------|
B|---------------------------------------------------------------------|
G|-----------4-----------------4-----------------4---------------------|
D|--4--------4--------0--------4--------4--------4--------0------------|
A|--4--------2--------0--------2--------4--------2--------0------------|
D|--4-----------------0-----------------4-----------------0------------|
Tap to rate this tab
 
# A B C D E F G H I J K L M N O P Q R S T U V W X Y Z