Adema - Someone Elses Lies tab

Artist: Adema
Title: Someone Else's Lies
Tempo: 112
Tabber: Alen1693
E-Mail: alen.lukovic@gmx.at

Tuning: Drop Bb
Bb F Bb Eb G C

Intro:
C |---------------------------------|-----------------------------------|
G |---------------------------------|-----------------------------------|
Eb|---------------------------------|-----------------------------------|
Bb|0--0--0-8--3--3-10--5----5---5---|0--0--0-8--3--3-10--5------10-12---|
F |0--0--0-8--3--3-10--5----5---5---|0--0--0-8--3--3-10--5------10-12---|
Bb|0--0--0-8--3--3-10--5----5---5---|0--0--0-8--3--3-10--5------10-12---|

C |---------------------------------|-----------------------------------|
G |---------------------------------|-----------------------------------|
Eb|---------------------------------|-----------------------------------|
Bb|0--0--0-8--3--3-10--5----5---5---|0--0--0-8--3--3-10--5------10-12---|
F |0--0--0-8--3--3-10--5----5---5---|0--0--0-8--3--3-10--5------10-12---|
Bb|0--0--0-8--3--3-10--5----5---5---|0--0--0-8--3--3-10--5------10-12---|

Verse 1:
C |----------------------121212--------------|----------------------121212------13131313|
G |----------------------------13131313131313|----------------------------131313--------|
Eb|------------------------------------------|------------------------------------------|
Bb|0000--3222223333--------------------------|------3222223333--------------------------|
F |----------------3333----------------------|1111------------0000----------------------|
Bb|------------------------------------------|------------------------------------------|

C |----------------------121212--------------|----------------------121212------13131313|
G |----------------------------13131313131313|----------------------------131313--------|
Eb|------------------------------------------|------------------------------------------|
Bb|0000--3222223333--------------------------|------3222223333--------------------------|
F |----------------3333----------------------|1111------------0000----------------------|
Bb|------------------------------------------|------------------------------------------|

C |----------------------121212--------------|----------------------121212------13131313|
G |----------------------------13131313131313|----------------------------131313--------|
Eb|------------------------------------------|------------------------------------------|
Bb|0000--3222223333--------------------------|------3222223333--------------------------|
F |----------------3333----------------------|1111------------0000----------------------|
Bb|------------------------------------------|------------------------------------------|

C |----------------------121212--------------|----------------------121212------13131313|
G |----------------------------13131313131313|----------------------------131313--------|
Eb|------------------------------------------|------------------------------------------|
Bb|0000--3222223333--------------------------|------3222223333--------------------------|
F |----------------3333----------------------|1111------------0000----------------------|
Bb|------------------------------------------|------------------------------------------|

Pre-Chorus:
C |--------------------------------|--------------------------------|
G |--------------------------------|--------------------------------|
Eb|--------------------------------|--------------------------------|
Bb|0-0-0-0-0-0-0-0-3-3-3-3-3-3-3-3-|5-5-5-5-5-5-5-5-8-8-8-8-8-8-8-8-|
F |0-0-0-0-0-0-0-0-3-3-3-3-3-3-3-3-|5-5-5-5-5-5-5-5-8-8-8-8-8-8-8-8-|
Bb|0-0-0-0-0-0-0-0-3-3-3-3-3-3-3-3-|5-5-5-5-5-5-5-5-8-8-8-8-8-8-8-8-|

Chorus:
C |--------------------------------|--------------------------------|
G |--------------------------------|--------------------------------|
Eb|--------------------------------|--------------------------------|
Bb|0-0-0-0-0-0-0-0-3-3-3-3-3-3-3-3-|5-5-5-5-5-5-5-5-8-8-8-8-8-8-8-8-|
F |0-0-0-0-0-0-0-0-3-3-3-3-3-3-3-3-|5-5-5-5-5-5-5-5-8-8-8-8-8-8-8-8-|
Bb|0-0-0-0-0-0-0-0-3-3-3-3-3-3-3-3-|5-5-5-5-5-5-5-5-8-8-8-8-8-8-8-8-|

C |--------------------------------|--------------------------------|
G |--------------------------------|--------------------------------|
Eb|--------------------------------|--------------------------------|
Bb|0-0-0-0-0-0-0-0-3-3-3-3-3-3-3-3-|5-5-5-5-5-5-5-5-8-8-8-8-8-8-8-8-|
F |0-0-0-0-0-0-0-0-3-3-3-3-3-3-3-3-|5-5-5-5-5-5-5-5-8-8-8-8-8-8-8-8-|
Bb|0-0-0-0-0-0-0-0-3-3-3-3-3-3-3-3-|5-5-5-5-5-5-5-5-8-8-8-8-8-8-8-8-|

Verse 2:
C |----------------------121212--------------|----------------------121212------13131313|
G |----------------------------13131313131313|----------------------------131313--------|
Eb|------------------------------------------|------------------------------------------|
Bb|0000--3222223333--------------------------|------3222223333--------------------------|
F |----------------3333----------------------|1111------------0000----------------------|
Bb|------------------------------------------|------------------------------------------|

C |----------------------121212--------------|----------------------121212------13131313|
G |----------------------------13131313131313|----------------------------131313--------|
Eb|------------------------------------------|------------------------------------------|
Bb|0000--3222223333--------------------------|------3222223333--------------------------|
F |----------------3333----------------------|1111------------0000----------------------|
Bb|------------------------------------------|------------------------------------------|

C |----------------------121212--------------|----------------------121212------13131313|
G |----------------------------13131313131313|----------------------------131313--------|
Eb|------------------------------------------|------------------------------------------|
Bb|0000--3222223333--------------------------|------3222223333--------------------------|
F |----------------3333----------------------|1111------------0000----------------------|
Bb|------------------------------------------|------------------------------------------|

C |----------------------121212--------------|----------------------121212------13131313|
G |----------------------------13131313131313|----------------------------131313--------|
Eb|------------------------------------------|------------------------------------------|
Bb|0000--3222223333--------------------------|------3222223333--------------------------|
F |----------------3333----------------------|1111------------0000----------------------|
Bb|------------------------------------------|------------------------------------------|

Pre-Chorus:
C |--------------------------------|--------------------------------|
G |--------------------------------|--------------------------------|
Eb|--------------------------------|--------------------------------|
Bb|0-0-0-0-0-0-0-0-3-3-3-3-3-3-3-3-|5-5-5-5-5-5-5-5-8-8-8-8-8-8-8-8-|
F |0-0-0-0-0-0-0-0-3-3-3-3-3-3-3-3-|5-5-5-5-5-5-5-5-8-8-8-8-8-8-8-8-|
Bb|0-0-0-0-0-0-0-0-3-3-3-3-3-3-3-3-|5-5-5-5-5-5-5-5-8-8-8-8-8-8-8-8-|

Chorus:
C |--------------------------------|--------------------------------|
G |--------------------------------|--------------------------------|
Eb|--------------------------------|--------------------------------|
Bb|0-0-0-0-0-0-0-0-3-3-3-3-3-3-3-3-|5-5-5-5-5-5-5-5-8-8-8-8-8-8-8-8-|
F |0-0-0-0-0-0-0-0-3-3-3-3-3-3-3-3-|5-5-5-5-5-5-5-5-8-8-8-8-8-8-8-8-|
Bb|0-0-0-0-0-0-0-0-3-3-3-3-3-3-3-3-|5-5-5-5-5-5-5-5-8-8-8-8-8-8-8-8-|

C |--------------------------------|--------------------------------|
G |--------------------------------|--------------------------------|
Eb|--------------------------------|--------------------------------|
Bb|0-0-0-0-0-0-0-0-3-3-3-3-3-3-3-3-|5-5-5-5-5-5-5-5-8-8-8-8-8-8-8-8-|
F |0-0-0-0-0-0-0-0-3-3-3-3-3-3-3-3-|5-5-5-5-5-5-5-5-8-8-8-8-8-8-8-8-|
Bb|0-0-0-0-0-0-0-0-3-3-3-3-3-3-3-3-|5-5-5-5-5-5-5-5-8-8-8-8-8-8-8-8-|

Bridge:
C |--------------------------------|--------------------------------|
G |--------------------------------|--------------------------------|
Eb|------2-----2-------------------|------4-----4---------5-22222222|
Bb|000000-00000-000------5-----5---|222222-22222-222333333-3--------|
F |----------------333333-33333-333|--------------------------------|
Bb|--------------------------------|--------------------------------|

C |---------------------------------|-----------------------------------|
G |---------------------------------|-----------------------------------|
Eb|---------------------------------|-----------------------------------|
Bb|0--0--0-8--3--3-10--5----5---5---|0--0--0-8--3--3-10--5------10-12---|
F |0--0--0-8--3--3-10--5----5---5---|0--0--0-8--3--3-10--5------10-12---|
Bb|0--0--0-8--3--3-10--5----5---5---|0--0--0-8--3--3-10--5------10-12---|

C |---------------------------------|-----------------------------------|
G |---------------------------------|-----------------------------------|
Eb|---------------------------------|-----------------------------------|
Bb|0--0--0-8--3--3-10--5----5---5---|0--0--0-8--3--3-10--5------10-12---|
F |0--0--0-8--3--3-10--5----5---5---|0--0--0-8--3--3-10--5------10-12---|
Bb|0--0--0-8--3--3-10--5----5---5---|0--0--0-8--3--3-10--5------10-12---|

Chorus:
C |--------------------------------|--------------------------------|
G |--------------------------------|--------------------------------|
Eb|--------------------------------|--------------------------------|
Bb|0-0-0-0-0-0-0-0-3-3-3-3-3-3-3-3-|5-5-5-5-5-5-5-5-8-8-8-8-8-8-8-8-|
F |0-0-0-0-0-0-0-0-3-3-3-3-3-3-3-3-|5-5-5-5-5-5-5-5-8-8-8-8-8-8-8-8-|
Bb|0-0-0-0-0-0-0-0-3-3-3-3-3-3-3-3-|5-5-5-5-5-5-5-5-8-8-8-8-8-8-8-8-|

C |--------------------------------|--------------------------------|
G |--------------------------------|--------------------------------|
Eb|--------------------------------|--------------------------------|
Bb|0-0-0-0-0-0-0-0-3-3-3-3-3-3-3-3-|5-5-5-5-5-5-5-5-8-8-8-8-8-8-8-8-|
F |0-0-0-0-0-0-0-0-3-3-3-3-3-3-3-3-|5-5-5-5-5-5-5-5-8-8-8-8-8-8-8-8-|
Bb|0-0-0-0-0-0-0-0-3-3-3-3-3-3-3-3-|5-5-5-5-5-5-5-5-8-8-8-8-8-8-8-8-|

C |--------------------------------|--------------------------------|
G |--------------------------------|--------------------------------|
Eb|--------------------------------|--------------------------------|
Bb|0-0-0-0-0-0-0-0-3-3-3-3-3-3-3-3-|5-5-5-5-5-5-5-5-8-8-8-8-8-8-8-8-|
F |0-0-0-0-0-0-0-0-3-3-3-3-3-3-3-3-|5-5-5-5-5-5-5-5-8-8-8-8-8-8-8-8-|
Bb|0-0-0-0-0-0-0-0-3-3-3-3-3-3-3-3-|5-5-5-5-5-5-5-5-8-8-8-8-8-8-8-8-|

C |--------------------------------|--------------------------------|
G |--------------------------------|--------------------------------|
Eb|--------------------------------|--------------------------------|
Bb|0-0-0-0-0-0-0-0-3-3-3-3-3-3-3-3-|5-5-5-5-5-5-5-5-8-8-8-8-8-8-8-8-|
F |0-0-0-0-0-0-0-0-3-3-3-3-3-3-3-3-|5-5-5-5-5-5-5-5-8-8-8-8-8-8-8-8-|
Bb|0-0-0-0-0-0-0-0-3-3-3-3-3-3-3-3-|5-5-5-5-5-5-5-5-8-8-8-8-8-8-8-8-|

Outro:
C |---------------------------------|
G |---------------------------------|
Eb|---------------------------------|
Bb|0--0--0-8--3--3-10--5--------5---|
F |0--0--0-8--3--3-10--5--------5---|
Bb|0--0--0-8--3--3-10--5--------5---|

Lyrics:
We are friends and you feel like we've grown apart
That's not the case, you know I'm speaking from my heart
Friends should last forever, bitches come and go
Someone's lying to you and I'm ready to explode

Why would you think that I would be
A liar and your friend

I'll show you, what they told you
Are someone else's lies
I'll show you, what they told you
Are someone else's lies

What about the days when we would all hang out
We would talk about our dreams and drive around
Friends should last forever, bitches come and go
Someone's lying to you and I'm ready to explode

Why would you think that I would be
A liar and your friend

I'll show you, what they told you
Are someone else's lies
I'll show you, what they told you
Are someone else's lies

Liar, someone's lying to you
Liar, someone's lying to you
Someone's lying to you, liar

I'll show you, what they told you
Are someone else's lies
I'll show you, what they told you
Are someone else's lies

Why would you think that I would want
To hurt you, hurt you, hurt you, hurt you
Why would you think that I would be
A liar and your friend
Tap to rate this tab
 
# A B C D E F G H I J K L M N O P Q R S T U V W X Y Z