Adema - Waiting For Daylight tab

-------------------------------------------------------------------------------
			     Waiting for Daylight - Adema
-------------------------------------------------------------------------------
Tabbed by:Efreet
Email:Efreet@seznam.cz

Tuning:drop D

Hi this is my version of Adema waiting for daylight. Timing is ok, I hate the 
other incomplete version of tab, so I made my own.


Intro x2	          This part only at 2nd.
eb(------------------------|----)
bb(------------------------|----)
gb(------------------------|----)
db(--5--4--5--4--5--4-542--|----)
ab(----------------------52|542-)
Db(------------------------|----)


Main riff x1		Here start 2nd  Meanwhile 2nd guitar
eb(--------------------/--------------)eb(---------------)
bb(-------------------/---------------)bb(--8---7---10-8-)
gb(-----------------|/_---------------)gb(---------------)
db(--5-5-5-5-5-5-5-5-4-4-4-4-77775555-)db(---------------)
ab(--5-5-5-5-5-5-5-5-4-4-4-4-77775555-)ab(---------------)
Db(--5-5-5-5-5-5-5-5-4-4-4-4-77775555-)Db(---------------)

Main riff x3                            Meanwhile 2nd guitar
eb(-----------------------------------)eb(--7---7---10-8-)
bb(-----------------------------------)bb(--8---7---10-8-)
gb(-----------------------------------)gb(---------------)
db(--5-5-5-5-5-5-5-5-4-4-4-4-77775555-)db(---------------)
ab(--5-5-5-5-5-5-5-5-4-4-4-4-77775555-)ab(---------------)
Db(--5-5-5-5-5-5-5-5-4-4-4-4-77775555-)Db(---------------)


Chorus x3
eb(-------------------------------------)
bb(-------------------------------------)
gb(-------------------------------------)
db(--55-5-55-55-5-55-4-44-4-44-77775555-)
ab(--55-5-55-55-5-55-4-44-4-44-77775555-)
Db(--55-5-55-55-5-55-4-44-4-44-77775555-)


Bridge part1 x2
eb(--------------------------)
bb(--------------------------)
gb(--------------------------)
db(--------------------------)
ab(--------------------------)
Db(-0000-2222-3333-5555------)

Bridge part2 x1
eb(---------------------------------------)
bb(---------------------------------------)
gb(---------------------------------------)
db(---------------------------------------)
ab(---------------------------------------)
Db(-0000-2222-3333-5555--5555555555555----)



Main riff x4                            Meanwhile 2nd guitar
eb(-----------------------------------)eb(--7---7---10-8-)
bb(-----------------------------------)bb(--8---7---10-8-)
gb(-----------------------------------)gb(---------------)
db(--5-5-5-5-5-5-5-5-4-4-4-4-77775555-)db(---------------)
ab(--5-5-5-5-5-5-5-5-4-4-4-4-77775555-)ab(---------------)
Db(--5-5-5-5-5-5-5-5-4-4-4-4-77775555-)Db(---------------)


chorus x3
eb(-------------------------------------)
bb(-------------------------------------)
gb(-------------------------------------)
db(--55-5-55-55-5-55-4-44-4-44-77775555-)
ab(--55-5-55-55-5-55-4-44-4-44-77775555-)
Db(--55-5-55-55-5-55-4-44-4-44-77775555-)


Bridge part1 x2
eb(--------------------------)
bb(--------------------------)
gb(--------------------------)
db(--------------------------)
ab(--------------------------)
Db(-0000-2222-3333-5555------)

Bridge part2 x1
eb(---------------------------------------)
bb(---------------------------------------)
gb(---------------------------------------)
db(---------------------------------------)
ab(---------------------------------------)
Db(-0000-2222-3333-5555--5555555555555----)

Verse x2
eb(--------------------------------------)
bb(--------------------------------------)
gb(--------------------------------------)
db(-22-22-22222/55/77-22-22-22222/55/44--)
ab(-22-22-22222/55/77-22-22-22222/55/44--)
Db(-22-22-22222/55/77-22-22-22222/55/44--)

chorus x3
eb(-------------------------------------)
bb(-------------------------------------)
gb(-------------------------------------)
db(--55-5-55-55-5-55-4-44-4-44-77775555-)
ab(--55-5-55-55-5-55-4-44-4-44-77775555-)
Db(--55-5-55-55-5-55-4-44-4-44-77775555-)


Bridge part1 x2
eb(--------------------------)
bb(--------------------------)
gb(--------------------------)
db(--------------------------)
ab(--------------------------)
Db(-0000-2222-3333-5555------)

Bridge part2 x1
eb(--------------------------------------)
bb(--------------------------------------)
gb(--------------------------------------)
db(--------------------------------------)
ab(--------------------------------------)
Db(-0000-2222-3333-5555--5555555555555---)
At the end is classic guitar, which I cannot perfectly hear the accords.
Tap to rate this tab
 
# A B C D E F G H I J K L M N O P Q R S T U V W X Y Z