Song name
# A B C D E F G H I J K L M N O P Q R S T U V W X Y Z

Adema - Rip The Heart Out Of Me tab

-------------------------------------------------------------------------------
		RIP THE HEART OUT OF ME - Adema
-------------------------------------------------------------------------------
Tabbed by:  crazydrivr

Tuning: A, E, A, D, f#, b

  Intro:  Use Heavy Distortion  (4 times)
b|-------------------------------------------------------------------------|
f|-------------------------------------------------------------------------|
D|-------------------------------------------------------------------------|
A|-10-10----5-5----6-6----1-1----------------------------------------------|
E|-10-10----5-5----6-6----1-1----------------------------------------------|
A|-10-10----5-5----6-6----1-1----------------------------------------------|


  Verse:  Use Heavy Distortion  (4 times)
b|-------------------------------------------------------------------------|
f|-------------------------------------------------------------------------|
D|-------------------------------------------------------------------------|
A|-6p5-5-5--5-5-5-5--5------7-7-7--8-8-8-8---------------------------------|
E|-6p5-5-5--5-5-5-5--5------5-5-5--6-6-6-6---------------------------------|
A|-6p5-5-5--5-5-5-5--5-----------------------------------------------------|
            X X X X

  Chorus:  Use Heavy Distortion  (3 times, but on the 3rd time leave notes in the 
out)
b|-------------------------------------------------------------------------|
f|-------------------------------------------------------------------------|
D|-------------------------------------------------------------------------|
A|-10-10----5-5----6-6----1-1----10-10----5-5----6-6---1-1----(3-3-1-3-3-1)|
E|-10-10----5-5----6-6----1-1----10-10----5-5----6-6---1-1----(3-3-1-3-3-1)|
A|-10-10----5-5----6-6----1-1----10-10----5-5----6-6---1-1----(3-3-1-3-3-1)|


  Bridge:  Use Heavy Distortion  (2 times)
b|-------------------------------------------------------------------------|
f|-------------------------------------------------------------------------|
D|-------------------------------------------------------------------------|
A|-10-10----6-6----10-10----8-8----3-3----8-8------------------------------|
E|-10-10----6-6----10-10----8-8----3-3----8-8------------------------------|
A|-10-10----6-6----10-10----8-8----3-3----8-8------------------------------|

b|-------------------------------------------------------------------------|
f|-------------------------------------------------------------------------|
D|-------------------------------------------------------------------------|
A|-10-10----6-6----10-10----8-8--10-10--3-3--8-8---------------------------|
E|-10-10----6-6----10-10----8-8--10-10--3-3--8-8---------------------------|
A|-10-10----6-6----10-10----8-8--10-10--3-3--8-8---------------------------|

The outro is basicly the same as the chorus, just listen to the song to get it exact.

The notes in parenthesis (3-3-1-3-3-1) are notes that i am not sure about repeatiton.  
will have to listen to the song to get the rep. right, although those are the right notes.

Feel free to put your thoughts in the comment box at the top of the screen.

Enjoy!

| p  pull-off
| x  Mute note
===============================================================================
Tap to rate this tab
# A B C D E F G H I J K L M N O P Q R S T U V W X Y Z