Song name
# A B C D E F G H I J K L M N O P Q R S T U V W X Y Z

Adema - Stressin tab

Adema - Stressin
Submitted By: hoobastank_182__
EMail: no_parking182@hotmail.com


Tuning: Drop D - D A D G B e

Intro:
e|-----------------------------------------|
B|-----------------------------------------|
G|--0-0-0-0-0-0-0-0-0-0-0-0-0-0-0-0-0-0-0--|
D|-----------------------------------------|
A|-----------------------------------------|
D|-----------------------------------------|

Pre-verse:
e|-----------------------------------------|
B|-----------------------------------------|
G|-----------------------------------------|
D|--5--5-5-5-0h1-------3--3-3-3\1-0-1-0-3--|
A|--5--5-5-5-0h1-------3--3-3-3\1-0-1-0-3--|
D|--5--5-5-5-0h1-------3--3-3-3\1-0-1-0-3--|

Verse:
e|-----------------------------------------|
B|-----------------------------------------|
G|-----------------------------------------|
D|--5----5----5----5----5----5----5----5---|
A|--5----5----5----5----5----5----5----5---|
D|--5----5----5----5----5----5----5----5---|

Pre-chorus:
e|-----------------------------------------|
B|-----------------------------------------|
G|-----------------------------------------|
D|--5----------8----------10----------13---|
A|--5----------8----------10----------13---|
D|--5----------8----------10----------13---|

Chorus: Guitar 1
e|-----------------------------------------|
B|-----------------------------------------|
G|-----------------------------------------|
D|--5--5-5-5-0h1-------3--3-3-3\1-0-1-0-3--|
A|--5--5-5-5-0h1-------3--3-3-3\1-0-1-0-3--|
D|--5--5-5-5-0h1-------3--3-3-3\1-0-1-0-3--|

Guitar 2
e|-----------------------------------------|
B|-----------------------------------------|
G|--12^--10^-------------------------------|
D|-----------------------------------------|
A|-----------------------------------------|
D|-----------------------------------------|

Verse

Pre-chorus

Chorus

Bridge:
e|-----------------------------------------|
B|-----------------------------------------|
G|--6--4--9--4--6----4-4x4x----------------|
D|--6--4--9--4--6----4-4x4x----------------|
A|--4--2--7--2--4----2-2x2x----------------|
D|-----------------------------------------|

Chorus

Outro:
e|-----------------------------------------|
B|-----------------------------------------|
G|--6--4--9--4--6--4~----------------------|
D|--6--4--9--4--6--4~----------------------|
A|--4--2--7--2--4--2~----------------------|
D|-----------------------------------------|
Tap to rate this tab
# A B C D E F G H I J K L M N O P Q R S T U V W X Y Z