Guitaretab - guitar tabs
Song name
# A B C D E F G H I J K L M N O P Q R S T U V W X Y Z
Home / A / Adema / Arrows tab

Adema - Arrows tab

intro x3               (x4)  harmonic
e(-------------------------)(----)
b(-------------------------)(----)
g(--7/5-7-10-99-79-7-5/7/0-)(--5-)
d(--7/5--------------5/7/0-)(----)
a(--7/5--------------5/7/0-)(----)
D(-------------------------)(----)

verse x12
e(------------------------)  (---------------------------------------------|
b(------------------------)  (---------------------------------------------|
g(--------------5/7-9-5/0-)  (---------------------------------------------|
d(--22-222-22-2-5/7---5/0-)  (--22-222-222-2-57588888888-------------------|
a(--22-222-22-2-5/7---5/0-)  (--22-222-222-2--------------------------575--|
D(--22-222-22-2-----------)  (--22-222-222-2-------------22-222-222-2------|
[ Tab from: http://www.guitaretab.com/a/adema/65638.html ]
pre-chorus
e(-----------------------------------------------------)
b(-----------------------------------------------------)
g(-----------------------------------------------------)
d(--22-222-222-2-57588888888-22-222-222-2-----66666666-)
a(--22-222-222-2-------------22-222-222-2-575----------)
D(--22-222-222-2-------------22-222-222-2--------------)

chorus x2
e(---------------------)
b(---------------------)
g(---------------------)
d(--35-12-023555553333-)
a(--35-12-023555553333-)
D(--35-12-023555553333-)

breakdown     (x7)                                      (x4)
e(------------------------------)(-----------)(-------------------------)
b(------------------------------)(-----------)(-------------------------)
g(------------------------------)(-----------)(-------------------------)
d(--33-33-33-5543-33-33-33-3579-)(--37-23-33-)(-----------3-5-0-2-3-3-5-)
a(--33-33-33-5543-33-33-33-3579-)(--37-23-33-)(-----------3-5-0-2-3-3-5-)
D(--33-33-33-5543-33-33-33-3579-)(--37-23-33-)(--5--6--2--3-5-0-2-3-3-5-)
             l___l         l___l                 l______l
               l_____________l                       1
                     l                               1
                    harmonics                 let ring
Related for Arrows tab
Arrows chords by Adema