Song name
# A B C D E F G H I J K L M N O P Q R S T U V W X Y Z

Adept - When The Sun Gave Up The Sky tab

The strumming isn't spot on in every part, work it out :)
Adept have 2 guitarists, I think the duties are usually shared by both guitarists, but
would be making this song too easy, so I tabbed it out so that a majority of the song can
played by just one guitar. There are a few missing lead bits where a second guitar must 
used, I'll post them at the bottom of the tab soon :)
Have fun!


INTRO
|---------------------------------|
|---------------------------------|
|-666-----666-----444-----444-----| x2
|-666-000-666-000-444-000-444-000-|
|-444-000-444-000-222-000-222-000-|
|-----000-----000-----000-----000-|
      ...     ...     ...     ...

VERSE 1
|---------------------------------------|
|---------------------------------------|
|--------------------7------------------|
|7-7--------------7----7p5-7p5-7----7-7-|
|----5-5p0-5-5p0-5--5-----5---5---------|
|--------------------------------7p0----|

|---------------------------------|    |---------------|
|---------------------------------|    |---------------|
|-666-----666-----444-----444-----| x2 |-10~-9-10p9~---|
|-666-000-666-000-444-000-444-000-|    |-------------0-|
|-444-000-444-000-222-000-222-000-|    |-------------0-|
|-----000-----000-----000-----000-|    |-------------0-|
      ...     ...     ...     ...

PRE-CHORUS 1
|-------------------------------------------------------------------------|
|-------------------------------------------------------------------------|
|-----999-----9-----999-------------------999-----9-9-----999-------------|
|-000-888-000-8-000-888-000-----------000-888-000-8-8-000-888-000--5b/p0--|
|-000-----000---000-----000--0-5b/p0--000-----000-----000-----000---------|
|-000-----000---000-----000-0-------0-000-----000-----000-----000-0-----0-|

|---------------------------------------------------------------|
|---------------------------------------------------------------|
|--------------9-------------------------------------9----------|
|-0000-00-0000-8-0000-00-0000-----------0000-00-0000-8-0000-000-|
|-0000-00-0000---0000-00-0000--0-5b/p0--0000-00-0000---0000-000-|
|-0000-00-0000---0000-00-0000-0-------0-0000-00-0000---0000-000-|

|-----------------------------------------|
|-----------------------------------------|
|-55555555----------55555555--------------|
|-55555555-33333333-33333333-55555-000000-|
|-33333333-33333333-33333333-55555-000000-|
|----------33333333----------55555-000000-|
                                   ......
CHORUS
|----------------------------------------|
|----------------------------------------|
|-55555555----------55555555-------------| x2
|-55555555-33333333-33333333-55555-xx-xx-|
|-33333333-33333333-33333333-55555-xx-xx-|
|----------33333333----------55555-xx-xx-|

VERSE 2
|----------------------|
|----------------------|
|------7------------7--|
|-7-------7-5--7-----7-|
|-------5--------------|
|---5p0----------5p0---|

|---------------------------------|
|---------------------------------|
|-666-----666-----444-----444-----|
|-666-000-666-000-444-000-444-000-|
|-444-000-444-000-222-000-222-000-|
|-----000-----000-----000-----000-|
      ...     ...     ...     ...

|---------------------------------|
|---------------------------------|
|-666-----666-----444-----444-----|
|-666-000-666-000-444-000-444-000-|
|-444-000-444-000-222-000-222-000-|
|-----000-----000-----000-----000-|
      ...     ...     ...

|---------------------------------|    |-----|
|---------------------------------|    |-----|
|-666-----666-----444-----444-----|    |---5-|
|-666-000-666-000-444-000-444-000-| x2 |-0-5-|
|-444-000-444-000-222-000-222-000-|    |-0-3-|
|-----000-----000-----000-----000-|    |-0---|
      ...     ...     ...     ...        .

PRE-CHORUS 2

|----------3p0-----------3p0----|
|-------------3-------------3\1-|
|--5--7--5-------5--7--5--------|
|-7--7--7-------7--7--7---------|
|-------------------------------|
|-------------------------------|

|-------|
|-------|
|--5--7-|
|-7--7--|
|-------|
|-------|

CHORUS
|----------------------------------------|
|----------------------------------------|
|-55555555----------55555555-------------| x2
|-55555555-33333333-33333333-55555-xx-xx-|
|-33333333-33333333-33333333-55555-xx-xx-|
|----------33333333----------55555-xx-xx-|

BRIDGE
|---------------------------------------------|
|---------------------------------------------|
|-7777-7--9999-9--7777-7--9999-9--7777-7-7777-|
|-7777-7--9999-9--7777-7--9999-9--7777-7-7777-|
|-5555-5--7777-7--5555-5--7777-7--5555-5-5555-|
|---------------------------------------------|

|------------------------------------------------| |-9-----|
|------------------------------------------------| |--10---|
|-------------------------------------77----99-9-| |-------|
|-555-3-333-5555-3-3333-555-55-777-77-77-55-99-9-| |----12-|
|-555-3-333-5555-3-3333-555-55-777-77-55-55-77-7-| |-------|
|-555-3-333-5555-3-3333-555-55-777-77----55----7-| |-------|

|----------------------------------------------------------|
|----5------5------5------5------5------5------5------5----|
|---7-7-7--7-7-7--7-7-7--7-7-7--7-7-7--7-7-7--7-7-7--7-7-7-|
|--7---7--7---7--7---7--7---7--7---7--7---7--7---7--7---7--|
|-5------5------4------4------5------5------4------4-------|
|----------------------------------------------------------|

|----------------------------------------------------------|
|----5------5------5------5------5------5------5------5----|
|---7-7-7--7-7-7--7-7-7--7-7-7--7-7-7--7-7-7--7-7-7--7-7-7-|
|--7---7--7---7--7---7--7---7--7---7--7---7--7---7--7---7--|
|-0------0------4------4------5------5------4------4-------|
|----------------------------------------------------------|

|------------------------------|
|----5------5------5------5----|
|---7-7-7--7-7-7--7-7-7--7-7-7-|
|--7---7--7---7--7---7--7---7--|
|-5------5------4------4-------|
|------------------------------|

|----------------------------------------------------------|
|----5------5------5------5------5------5------5------5----|
|---7-7-7--7-7-7--7-7-7--7-7-7--7-7-7--7-7-7--7-7-7--7-7-7-|
|--7---7--7---7--7---7--7---7--7---7--7---7--7---7--7---7--|
|-0------0------4------4------5------5------4------4-------|
|----------------------------------------------------------|

|------------------------------|
|----5------5------5------5----|
|---7-7-7--7-7-7--7-7-7--7-7-7-|
|--7---7--7---7--7---7--7---7--|
|-5------5------4------4-------|
|------------------------------|

|--------------------------------------------|
|----5------5------5------5------5------5----|
|---7-7-7--7-7-7--7-7-7--7-7-7--7-7-7--7-7-7-|
|--7---7--7---7--7---7--7---7--7---7--7---7--|
|-0------0------4------4------5------5-------|
|--------------------------------------------|

OUTRO
|-----------------------------|    |------|
|-----------------------------|    |------|
|-7777-7-777777-6666-6-666666-| x4 |-xxxx-|
|-7777-7-777777-6666-6-666666-|    |-xxxx-|
|-5555-5-555555-4444-4-444444-|    |-xxxx-|
|-----------------------------|    |------|

|----------------------------------------------------|
|--7777-7-777777-6666-6-666666-7777-7-777777-----7-4-|
|--7777-7-777777-6666-6-666666-7777-7-777777-----7-4-|
|--5555-5-555555-4444-4-444444-5555-5-555555-xxx-5-6-|
|--------------------------------------------xxx-----|
|--------------------------------------------xxx-----|
Tap to rate this tab
# A B C D E F G H I J K L M N O P Q R S T U V W X Y Z