Song name
# A B C D E F G H I J K L M N O P Q R S T U V W X Y Z

Adept - Caution Boys Night Out tab

Adept - Caution! Boys Night Out
Drop D Tuning E-B-G-D-A-D I believe it's 100% sure.

*Taping*

E ---------------------------------15------------------------|
B --------13-----------------13---------13-------------------|
G -----9--------12/14-----9-------------------12/14----------|
D --7--------7---------7--------7-----7----7-----------------|
A -----------------------------------------------------------|
D -----------------------------------------------------------|

E -----------------------------------------------------------|
B ---------13----12/13----13--------13----12/13--------------|
G --------------------------------------------------14-------|
D -----10------------------------12--------------------------|
A --8---------8---------8----10---------10------10-----------|
D -----------------------------------------------------------|


E ---------------------------------15------------------------|
B --------13-----------------13---------13-------------------|
G -----9--------12/14-----9-------------------12/14----------|
D --7--------7---------7--------7-----7----7-----------------|
A -----------------------------------------------------------|
D -----------------------------------------------------------|

E -----------------------------------------------------------|
B ---------13----12/13----13--------13----12/13--------------|
G -----------------------------------------------------------|
D -----10------------------------12--------------------------|
A --8---------8---------8----10---------10-------------------|
D -----------------------------------------------------------|

And that's pretty much it.

Email me at sne_ve_tre@live.se if anything comes up ;)
Tap to rate this tab
 
# A B C D E F G H I J K L M N O P Q R S T U V W X Y Z