Song name
# A B C D E F G H I J K L M N O P Q R S T U V W X Y Z

Adera - Lebih Indah chords

Highlighted       Show chord diagrams
Intro : (Dm7 BbM7 Gm7 A7) 2x

_____________________________________
e----------------------6-5---------|
B---------6-5--------------8-6-5---|
G-------------7-5----------------7-|
D-----------------7-8--------------|
A--5-------------------------------|
E----------------------------------|
_____________________________________
e----------------------------------|
B--------3--------------5----------|
G-------3--------------6-----------|
D------3--------------5------------|
A-----5--------------7-------------|
E----3--------------5--------------|
_____________________________________

-------------------------------------------------

*VERSE*

     Dm7                                 A7
Saatku tenggelam dalam sendu
     Dm7                             G
Waktupun enggan untuk berlalu
     BbM7                                  C            FM7
Ku berjanji untuk menutup pintu hatiku
       G                          A7
Entah untuk siapapun itu

     Dm7                      A7
Semakin ku lihat masa lalu
     BbM7                   Am7
Semakin hatiku tak menentu
      Gm7                    C        F
Tetapi satu sinar terangi jiwaku
         Em7                A7
Saatku melihat senyummu

-------------------------------------------------

*CHORUS*

      Dm7               F#m7 Bm7        Em7
Dan kau hadir merubah segalanya
      A        G         F#m7
Menjadi lebih indah
     Bm7                      Em7
Kau bawa cintaku setinggi angkasa
     A7                          Dm7
Membuatku merasa sempurna
      F#m7  Bm7           Em7
Dan membuatku utuh
     A          G         F#m7
‘Tuk menjalani hidup
        Bm7                                Em7
Berdua denganmu selama-lamanya
        A7                        
Engkaulah yang terbaik untukku

-------------------------------------------------

(Dm7 BbM7 Gm7 A7) 2x

-------------------------------------------------

*VERSE*

         Dm7                          A7
Kini ku ingin hentikan waktu
         BbM7                       Am7
Bila kau berada di dekatku
         Gm7                      C            F
Bunga cinta bermekaran dalam jiwaku
         Em7                      A7
Kan ku petik satu untukmu

-------------------------------------------------

*CHORUS*

      Dm7               F#m7 Bm7        Em7
Dan kau hadir merubah segalanya
      A        G         F#m7
Menjadi lebih indah
     Bm7                      Em7
Kau bawa cintaku setinggi angkasa
     A7                          Dm7
Membuatku merasa sempurna 
      F#m7  Bm7           Em7
Dan membuatku utuh 
     A          G         F#m7
‘Tuk menjalani hidup
        Bm7                                Em7
Berdua denganmu selama-lamanya
        A7                        
Engkaulah yang terbaik untukku

-------------------------------------------------
chords by @yogdogz
-------------------------------------------------
*BRIDGE*
BbM7            Am7 Dm7             D#        Dm7
 Ku percayakan seluruh hatiku padamu
BbM7            Am7 Dm7             Em7          A7
 Kasihku satu janjiku, kaulah yang terakhir bagiku
 -------------------------------------------------
*GUITAR SOLO*
 Dm7 F#m7-Bm7 Em7 G A7
 Dm7 F#m7-Bm7 Em7 - F#m7 - G - A7
-------------------------------------------------
*CHORUS*
Dm7              F#m7 Bm7       Em7
 Dan kau hadir merubah segalanya
 A       G      F#m7
 Menjadi lebih indah
 Bm7          Em7
 Kau bawa cintaku setinggi angkasa
 A7                          Dm7 (D-C#-B-A-G#-G) -> bass chord turun
 Membuatku merasa sempurna
 F#m7 Bm7            Em7
 Dan membuatku utuh
 A (C#-B-A-G)       F#m7
 ‘Tuk menjalani hidup
 Bm7                               Em7
 Berdua denganmu selama-lamanya
 A7                                   G                          G/F#m
 Engkaulah yang terbaik untukku.... Yeah yeah..
BbM7                   A7
 Yang terbaik untukku...
-------------------------------------------------
Intro : (Dm7 BbM7 Gm7 A7) 2x
-------------------------------------------------
Tap to rate this tab
# A B C D E F G H I J K L M N O P Q R S T U V W X Y Z