Song name
# A B C D E F G H I J K L M N O P Q R S T U V W X Y Z

Adestria - The Odyssey tab

Guitar 1
D|---------------------------------------------------------------------------|
A|---------------------------------------------------------------------------|
F|-----------------------------------------------------------------------5h7-|
C|-------------------------------------------------------------7p0--7h8------|
G|--7h8p7p0--5p0--5h7p5p0--3p0----4h7----7h8p7p0--5p0--5h7p5p0---------------|
C|-----------------------------5h8-------------------------------------------|




Guitar 1
D|---------------------------------------------------------------------------|
A|---------------------------------------------------------------------------|
F|---------------------------------------------------------------------------|
C|-------------------------------------------------------------7h8p7p0--10p0-|
G|--7h8p7p0--5p0--5h7p5p0--3p0----4h7----7h8p7p0--5p0--5h7p5p0---------------|
C|-----------------------------5h8-------------------------------------------|



Guitar 1
D|---------------------------------------------------------------------------|
A|---------------------------------------------------------------------------|
F|----------9h10-------------------------------------------------------------|
C|--10h12--------------------------------------------------------------------|
G|---------------------------------------------------------------------------|
C|---------------------------------------------------------------------------|

Tap to rate this tab
# A B C D E F G H I J K L M N O P Q R S T U V W X Y Z