Guitaretab - guitar tabs
Song name
# A B C D E F G H I J K L M N O P Q R S T U V W X Y Z

Adhesive - Thousand Times tab

Tabs: Adhesive
Song: a thousand times
album: sideburner

tunning: Standard(EADGBe)These tabs are only for guitar 1

INTRO

------------------------------------------------------------
------------------------------------------------------------
-888-777----------------888-777-555-333---888-777-333-555---
-888-777-222-222222-333-888-777-555-333---888-777-333-555---
-666-555-222-222222-333-666-555-333-111---666-555-111-333---
--------------------111-------------------------------------
 ... ... pm

------------------------------------------------------------------
------------------------------------------------------------------
-888-777-101010----------------888-777-555-333---888-777-333-555--
-888-777-101010-222-222222-333-888-777-555-333---888-777-333-555--
-666-555--8-8-8-222-222222-333-666-555-333-111---666-555-111-333--
---------------------------111------------------------------------
 ... ...  . . . pm

VERSE

------------------------------------------------------------------------------------------
------------------------------------------------------------------------------------------
--------------------33333333--------------------------3333333--------------3333-5555-5555-
-22222222-22222222--33333333-33333333-22222222222222--3333333-3333333-5555-3333-5555-5555-
-22222222-22222222--11111111-33333333-22222222222222--1111111-3333333-5555-1111-3333-3333-
-----------------------------11111111-------------------------1111111-3333----------------
 ........ |  pm   |                                                        .... .... | pm|


---------------------------------------------------------------
---------------------------------------------------------------
------3333-5555-8888--33333----------------33333---------------
-5555-3333-5555-8888--33333-33333-2222222--33333-33333-2222222-
-5555-3333-3333-6666--11111-33333-2222222--11111-33333-2222222-
-3333-----------------------11111----------------11111---------


CHORUS
[ Tab from: http://www.guitaretab.com/a/adhesive/31032.html ]
------------------------------
------------------------------
--333-----333-----------------
--333-333-333-333-555-333-222-
--111-333-111-333-555-111-222-
------111-----111-333-111-----   2x


INTRO

in the last part of the intro you have to play this

-----------------------
-----------------------
--12-12-12---11-11-11--
--12-12-12---11-11-11--
--10-10-10----9--9--9--
-----------------------

VERSE

Before the solo you play this twice

------
------
--33--
--33--
--11--
------

SOLO

--10-9-8---10-9-8---10-9-8---10-9-8------12-11-10---12-11-10---12-11-10---12-11-10-
-----------------------------------------------------------------------------------
-----------------------------------------------------------------------------------
-----------------------------------------------------------------------------------
-----------------------------------------------------------------------------------
-----------------------------------------------------------------------------------
 |-------------2x-------------------|    |------------------2x--------------------|

--------------------------------------------------10-9-8---10-9-8---10-9-8---10-9-8-
--12-11-10---12-11-10---12-11-10---12-11-10-----------------------------------------
------------------------------------------------------------------------------------
------------------------------------------------------------------------------------
------------------------------------------------------------------------------------
------------------------------------------------------------------------------------
 |------------------2x----------------------|    |---------------2x----------------|


OUTRO

-------------------------------------------------------------------------------
-------------------------------------------------------------------------------
-33----------------------------------------------------------------------------
-33----------------------------------------------------------------------------
-11----------------------------------------------------------------------------
-------------------------------------------------------------------------------

Any comments write to Diego Revollo, tipejo@hotmail.com
This tabs are only for guitar 1