Song name
# A B C D E F G H I J K L M N O P Q R S T U V W X Y Z

Adicts - Youll Never Walk Alone tab

Band:Adicts
Song:You'll Never Walk Alone

tabbed by jam9383@yahoo.com

Intro\Chorus
e-----------------------------------------------|
B-----------------------------------------------|
G----------9----------11------------------------|
D--9-------9----------11------------------------|
A--9-------7----------9-------------------------|
E--7--------------------------------------------|


Verse
e-----------------------------------------------------------------------|
B-----------------------------------------------------------------------|
G-------------------9-9-9-9-11-11-11-11---------------------------------|
D--9-9-9-9-9-9-9-9--9-9-9-9-11-11-11-11---------------------------------|
A--9-9-9-9-9-9-9-9--7-7-7-7-9--9--9--9----------------------------------|
E--7-7-7-7-7-7-7-7------------------------------------------------------|

Song is vocally driven
If any corrections are needed contact me, please rate
Tap to rate this tab
# A B C D E F G H I J K L M N O P Q R S T U V W X Y Z