Song name
# A B C D E F G H I J K L M N O P Q R S T U V W X Y Z

Adicts - Who Split My Beer tab

okay..ya ive nticed that all the tabs for this song suck..so..ya..
standard tuning


intro
e-----------------------------------------------------|
b-----------------------------------------------------|
g------7--4--6--7-----9--------7--4--6--7-----9-------|
d-7----7--4--6--7--7--9--7--7--7--4--6--7--7--9-------|
a-7----5--2--4--5--7--7--7--7--5--2--4--5--7--7-------|
E-5----------------5-----5--5--------------5----------|
ya..do this once

solo thingy in the beginning
e------------------------------------2------5-4--------|
b--2--2--2-0---0---3-2-0---0---2-5-2--5-2-5------------|
g------------3---3-------3-----------------------------|
d------------------------------------------------------|
a------------------------------------------------------|
E------------------------------------------------------|

verses
the verse is the same as the intro..
okay ya..on the track it sounds like there only doin single stokes..
but its soo much funner to do like alternative strumming(or somthing like that)
thats just me...but like..just go like this during the verses:
down down up up down up(repeat)
see how nice i am:p


chorus
e------------------------------------------------------|
b------------------------------------------------------|
g--------------------------9-9-9-9-9-9-----------------|
d----7-x-x-7-x-x-x-x-7-7---9-9-9-9-9-9-----7-7-7-7-7-7-|
a----7-x-x-7-x-x-x-x-7-5---7-7-7-7-7-7-----7-7-7-7-7-7-|
E----5-x-x-5-x-x-x-x-5-5-------------------5-5-5-5-5-5-|
     d d u d d u d u d d   d d u u d u     d d u u d u

e------------------------------------------------------|
b------------------------------------------------------|
g-----------------4-4-4-4-4-4--------------------------|
d----4-4-4-4-4-4--4-4-4-4-4-4--2-----------------------|
a----4-4-4-4-4-4--2-2-2-2-2-2--2-----------------------|
E----2-2-2-2-2-2---------------0-----------------------|
     d d u u d u  d d u u d u  d(hold)
do that twice


solo
e------------------------------------2------5-4--------|
b--2--2--2-0---0---3-2-0---0---2-5-2--5-2-5------------|
g------------3---3-------3-----------------------------|
d------------------------------------------------------|
a------------------------------------------------------|
E------------------------------------------------------|

e-------------------------------------------------------|
b---14--14--14--12-14-15-14-12---12------12--15-14-12---|
g------------------------------14-----14----------------|
d-------------------------------------------------------|
a-------------------------------------------------------|
E-------------------------------------------------------|

e------------------------------------------------------|
b------------------------------------------------------|
g-14--14h16p14h16p14h16p14h16--------------------------|
d-----------------------------14-----------------------|
a------------------------------------------------------|
E------------------------------------------------------|

slow part
e-----------------------------------------------------|
b-----------------------------------------------------|
g------7--4--6--7-----9--------7--4--6--7-------------|
d-7----7--4--6--7--7--9--7--7--7--4--6--7-------------|
a-7----5--2--4--5--7--7--7--7--5--2--4--5-------------|
E-5----------------5-----5--5-------------------------|

do the chorus twice
sorry..idk the ending solo:/

outro
e-----------------------------------------------------|
b-----------------------------------------------------|
g-----9--7--6-----------------------------------------|
d-----9--7--6-9--7--6--4--2---7-----------------------|
a-----7--5--4-9--7--6--4--2---7-----------------------|
E-------------7--5--4--2--0---5-----------------------|
Tap to rate this tab
 
# A B C D E F G H I J K L M N O P Q R S T U V W X Y Z