Song name
# A B C D E F G H I J K L M N O P Q R S T U V W X Y Z

Adicts - Tuned Inturned Ondropped Out tab

e---------------------------------------------------------------------------|
b---------------------------------------------------------------------------|
g---------------------------------------------------------------------------|
d-9x8-6x8---------9x8-------------------------------------------------------|
a-7---4---7x4-9x4-7---------------------------------------------------------|
e---------5---7-------------------------------------------------------------|
repeat this over and over its the first guitar^

e---------------------------------------------------------------------------|
b---------12~12h14----------------------------------------------------------|
g9~9h11h13--------13-9~-----------------------------------------------------|
d---------------------------------------------------------------------------|
a---------------------------------------------------------------------------|
e---------------------------------------------------------------------------|
second guitar starts when first guitar hits third chord

this album isnt out yet but i heard it live and i tabbed it at the concert
Tap to rate this tab
 
# A B C D E F G H I J K L M N O P Q R S T U V W X Y Z