Song name
# A B C D E F G H I J K L M N O P Q R S T U V W X Y Z

Adicts - The Odd Couple tab

E----------------------------------|
B----------------------------------|
G----------------------------------|
D-(4)--------2-4-2--4-2------------|
A-(4)-0-2-4---------------5-3------|
E--2-----------------------------4-| Repeat from beginning 3x

On third time:

E----------------------------------------------------|
B--------------------------------------------18b(5x)-|
G-----------------------------------16b(x6)----------|
D-(4)-------2-4-2--4-2--4-2--------------------------|
A-(4)-0-2-4-----------------5-3----------------------|
E--2----------------------------4--------------------|

Tap to rate this tab
 
# A B C D E F G H I J K L M N O P Q R S T U V W X Y Z