Adicts - Lets Have A Party tab

Letís Have a Party Intro
The Adicts

(The end might be slightly or very off)

E----------------------------------------|
B----------------------------------------|
G--6-8-6-8-4--6-8-6-8-4--6-8-8-8-10-8-6~-|
D----------------------------------------|
A----------------------------------------|
E----------------------------------------|

E------------------------------3-3-3-1----------|
B---------------------------3----------1-4------|
G--4-6-4-6-3--4-6-4-6-3--------------------2/4~~|
D-----------------------------------------------|
A-----------------------------------------------|
E-----------------------------------------------|
Tap to rate this tab
 
# A B C D E F G H I J K L M N O P Q R S T U V W X Y Z