Song name
# A B C D E F G H I J K L M N O P Q R S T U V W X Y Z

Adicts - Joker In The Pack tab

Intro 
and 
Verse
E|----------------------------------------------|
B|----------------------------------------------|
G|--------------------1010101010--999--777------|
D|-1010101010--99999--1010101010--999--777------|
A|-1010101010--99999---8-8-8-8-8--777--555------|
E|--8-8-8-8-8--77777----------------------------|

Solo (4x)
E|----------------------------------------------|
B|----------------------------12--------12------|
G|----9-12-9----9-12-9---8-11------8-11---------|
D|-10--------10--------9---------9--------------|
A|----------------------------------------------|
E|----------------------------------------------|

E|----------------------------------------------|
B|----------------------------------------------|
G|---------10--------10-------9--77-------------|
D|----7-10------7-10------6-9----77-------------|
A|--8---------8---------7--------55-------------|
E|----------------------------------------------|
Tap to rate this tab
 
# A B C D E F G H I J K L M N O P Q R S T U V W X Y Z