Song name
# A B C D E F G H I J K L M N O P Q R S T U V W X Y Z

Adicts - Life Goes On tab

Song:Life Goes On
Album:Life Goes On
Artist:The Adicts
Year:2009
Tuning: Standard (E,A.D,G,B,E)

Intro
E-------|
B-------|
G-------|
D-6-----|
A-6x32--|
E-4-----|

Verse 1 x4
E-------------------------------|  On The 4th
B-------------------------------|  time through
G------------------6----9---8---|  play the (997)
D-6-6-6-6-6-6-6-6--6x8--9x4-8x4-|  And (886) x3
A-6-6-6-6-6-6-6-6--4----7---6---|
E-4-4-4-4-4-4-4-4---------------|

Chorus 1 x2
E-------------------------------|
B-------------------------------|
G------6----9---8---------------|
D-6----6X8--9X4-8X4-------------|
A-6X8--4----7---6----3~~~--6~~~-|
E-4-----------------------------|

Break
E-----------------------------------|
B-----------------------------------|
G---------8-8--6-6--4-4--3-3--------|
D-6-66-6--8-8--6-6--4-4--3-3--6-66--|
A-6-66-6--6-6--4-4--2-2--1-1--6-66--|
E-4-44-4----------------------4-44--|

E---------------------|
B---------------------|
G-8-8--6-6--4-4--3-3--|  x4
D-8-8--6-6--4-4--3-3--|
A-6-6--4-4--2-2--1-1--|
E---------------------|

Chorus 2 x5
E-------------------------------|
B-------------------------------|
G------6----9---8---------------|
D-6----6x8--9x4-8x4-------------|
A-6x8--4----7---6----3~~~--6~~~-|
E-4-----------------------------|

Bridge x3
E-------------------------------|
B-------------------------------|
G------6----9---8---------------|
D-6----6x8--9x4-8x4-------------|
A-6x8--4----7---6----3~~~--6~~~-|
E-4-----------------------------|

Final Chorus x2
E--------------------------------|
B--------------------------------|
G------6----9---8----------------|
D-6----6x8--9x4-8x4--------------|
A-6x8--4----7---6----3~~~--6~~~--|
E-4------------------------------|

The End
 If You Would Like To Play Along With The Song
Here's The Link:
http://www.youtube.com/watch?v=-WmTUWAuNV8
Tap to rate this tab
 
# A B C D E F G H I J K L M N O P Q R S T U V W X Y Z