Song name
# A B C D E F G H I J K L M N O P Q R S T U V W X Y Z

Adicts - Viva La Revolution tab

Band:Adicts
Song:Viva La Revolution

tabbed by jam9383@yahoo.com

Intro/Chorus

e----------------------------------------------------------------------|
B----------------------------------------------------------------------|
G--------------------------------11-11-11-11-11-11-11-11-11-11---------|
D--11-11-11-11-11-11-11-11-11-11-11-11-11-11-11-11-11-11-11-11--9-9-10-|
A--11-11-11-11-11-11-11-11-11-11--9--9--9--9--9--9--9--9--9--9--9-9-10-|
E--9--9--9--9--9--9--9--9--9--9---------------------------------7-7-8--|


Verse
   PM-------------------------------------------------------------------|PM
e-----------------------------------------------------------------------|
B-----------------------------------------------------------------------|
G--------------------------------11-11-11-11-11-11-11-11-11-11----------|
D--11-11-11-11-11-11-11-11-11-11-11-11-11-11-11-11-11-11-11-11--9-9-10--|
A--11-11-11-11-11-11-11-11-11-11--9--9--9--9--9--9--9--9--9--9--9-9-10--|
E--9--9--9--9--9--9--9--9--9--9---------------------------------7-7-8---|

Fill

e----------------------------------------------------------------------|
B----------9----------9------------------------------------------------|
G-------------10------10-----------------------------------------------|
D-----11----------11---------------------------------------------------|
A----------------------------------------------------------------------|
E----------------------------------------------------------------------|

e----------------------------------------------------------------------|
B----------------------------------------------------------------------|
G--9-----9-----11----11---11-------------------------------------------|
D--9-----9-----11----11---11---9--10-----------------------------------|
A--7-----7-----9-----9----9----9--10-----------------------------------|
E------------------------------7--8------------------------------------|


If any corrections are needed contact me
Tap to rate this tab
 
# A B C D E F G H I J K L M N O P Q R S T U V W X Y Z