Song name
# A B C D E F G H I J K L M N O P Q R S T U V W X Y Z

Adicts - Smart Alex tab

Song:Smart Alex
Album:Smart Alex
Artist:The Adicts
Genre:Punk Rock
Year:1985
Tuning: Standard (E,A,D,G,B,E)

Intro x4
E--------------------|
B--------------------|
G--------------------|
D-4-X-X--4-X-X-44-4--|
A-4-X-X--4-X-X-44-4--|
E-2-X-X--2-X-X-22-0--|
 (  x2 )

Verse 1
E-----------------------------------------------------|
B-----------------------------------------------------|
G-----------------(  REPEAT     X2  )-----------------|
D------------------4-X-X--4-X-X-44-4------------------|
A-----0-2-4-5-7~~--4-X-X--4-X-X-44-4----0-2-4-5-7~~~--|
E-2~~--------------2-X-X--2-X-X-22-0------------------|
                   ( x2)

Pre-Chorus 1
E---------------------|
B---------------------|
G---------------------|
D-4~~--4~~--4~~--4~~--|
A-4~~--4~~--4~~--4~~--|
E-2~~--2~~--2~~--2~~--|

Chorus 1
E------------------------|
B------------------------|
G------------------------|
D-4-X-X--4-X-X-44-4-5~~--|
A-4-X-X--4-X-X-44-4-5~~--|
E-2-X-X--2-X-X-22-0-3~~--|

Verse 2
E--------------------------|
B--------------------------|
G--------------------------|
D-4~~----------------------|
A-4~~--0-2-4-5-7~~--10-10--|
E-2~~----------------------|

E-------------------------------------------|
B-------------------------------------------|
G-------------------------------------------|
D-4-X-X--4-X-X-44-44------------------------|
A-4-X-X--4-X-X-44-44--0-2-4-5-7~~--10-10~~--|
E-2-X-X--2-X-X-22-00------------------------|
 (  x2 )

Chorus 2
E--------------------------------|
B--------------------------------|
G--------------------------------|
D-4~~--5-4~------------2~~--2~~--|
A-4~~--5-4~--0-2---0-2-2~~--2~~--|
E-2~~--3-2~------------0~~--0~~--|
      (Repeat x3)
Bridge Part 1 x2
E---------------------------------------|
B---------------------------------------|
G---------------------------------------|
D-4-X-X--4-X-X-44-4--5-X-X--5-X-X-55-5--|
A-4-X-X--4-X-X-44-4--5-X-X--5-X-X-55-5--|
E-2-X-X--2-X-X-22-0--3-X-X--3-X-X-33-0--|
 (  x2 )            (   x2)

E-----------------------------------------|
B-----------------------------------------|
G-----------------------------------------|
D-7-X-X--7-X-X--77-7--9-X-X--9-X-X--99-9--|
A-7-X-X--7-X-X--77-7--9-X-X--9-X-X--99-9--|
E-5-X-X--5-X-X--55-0--7-X-X--7-X-X--77-0--|
 (  x2 )             (  x2 )
Bridge Part 2
E-----------------------------------------|
B-----------------------------------------|
G-----------------------------------------|
D-9-9-7--X-5-4--2~~--9-9-7--X-5-4---------|
A-9-9-7--X-5-4--2~~--9-9-7--X-5-4---------|
E-7-7-5--X-3-2--0~~--7-7-5--X-3-2--0h2-0--|
 (     x3     )     (     x3     )

Verse 3
E--------------------------------------------------------------------|
B--------------------------------------------------------------------|
G--------------------------------------------------------------------|
D-4~~------------------------4-X-X--4-X-X-44-4-----------------------|
A-4~~--0-2-4-5-7~--10-10~~---4-X-X--4-X-X-44-4--0-2-4-5-7~--10-10~~--|
E-2~~------------------------2-X-X--2-X-X-22-0-----------------------|
                            (  x2 )

Pre-Chorus 2
E--------------------------|
B--------------------------|
G--------------------------|
D-4~~--4~~--4~~--4~~--4~~--|
A-4~~--4~~--4~~--4~~--4~~--|
E-2~~--2~~--2~~--2~~--2~~--|

Chorus 3 x3
E--------|
B--------|
G--------|
D-5-4~~--|
A-5-4~~--|
E-3-2~~--|

Outro Part 1
E---------------------------------------|
B---------------------------------------|
G---------------------------------------|
D-4-X-X--4-X-X-44-4--5-X-X--5-X-X-55-5--|
A-4-X-X--4-X-X-44-4--5-X-X--5-X-X-55-5--|
E-2-X-X--2-X-X-22-0--3-X-X--3-X-X-33-0--|
 (  x2 )            (  x2 )

E---------------------------------------|
B---------------------------------------|
G---------------------------------------|
D-7-X-X--7-X-X-77-7--9-X-X--9-X-X-99-9--|
A-7-X-X--7-X-X-77-7--9-X-X--9-X-X-99-9--|
E-5-X-X--5-X-X-55-0--7-X-X--7-X-X-77-0--|
 ( x2  )            (  x2 )

Outro Part 2 (END OF SONG)
E-----------|
B-----------|
G-----------|
D-4~~--4-5--|
A-4~~--4-5--|
E-2~~--2-3--|


Key:
X= Muted Note
~=Let Note Ring Out

Here's A Link If You Wanna Play Along:
http://www.youtube.com/watch?v=1geQdHtTI8o

**Please Rate And Comment If You Liked The Tab
Or If You Have Any Corrections. Thank You!
Tap to rate this tab
# A B C D E F G H I J K L M N O P Q R S T U V W X Y Z