Song name
# A B C D E F G H I J K L M N O P Q R S T U V W X Y Z

Adicts - Chinese Take Away tab

Song:Chinese Take Away
Album:Sound Of Music
Artist:The Adicts
Genre:Punk Rock
Year:1982
Tuning: Standard (E,A,D,G,B,E)

Intro x2
E-5-5-----3-3-----5-|
B-5-5-3-5-3-3-3-5-5-|
G-------------------|
D-------------------|
A-------------------|
E-------------------|

Chorus 1A
E-------------------------------|
B-------------------------------|
G-------------------------------|
D-7--777----------5--555-----7--|
A-5--555--5-7-5-7-3--333-5-7-5--|
E---------3-5-3-5--------3-5----|

Chorus 1B
E----------------------------------|
B----------------------------------|
G-----------7-7-5------------------|
D-------5-3---------------5-3------|
A---5-3---------------5-3-----5-3--|
E-1-----------------1--------------|

Verse 1 x4
E---------------|
B---------------|
G---------------|
D--------55555--|
A-33333--33333--|
E-11111---------|

Then:
*Chorus 1A and 1B
*Verse 2
*Chorus 1A and 1B

Bridge
E-222--333--222--3-----2~~--|
B-333--333--333--3-----3~~--|
G-222--xxx--222--x-----2~~--|
D------xxx-------xX10-------|
A------222-------2----------|
E------333-------3----------|

Then:
*Chorus 1A and 1B
*Verse 3

Chorus 1A x6
E--------------------------------|
B--------------------------------|
G--------------------------------|
D-7--777-----------5--555------7-|
A-5--555--5-7-5-7--3--333--5-7-5-|
E---------3-5-3-5----------3-5---|
 *Play This Until The Song Fades Out.

Key:
~=Let Ring Out
x=Muted Notes

Here's A Link To The Song If You Wanna Play Along:
http://www.youtube.com/watch?v=mOk0FL55Qx8

Please Rate And Comment If You Liked The Tab, I'd Really Appreciate It.
Tap to rate this tab
# A B C D E F G H I J K L M N O P Q R S T U V W X Y Z