Song name
# A B C D E F G H I J K L M N O P Q R S T U V W X Y Z

Adicts - Give It To Me Baby Im Addicted To You tab

The Adicts
Give It To Me Baby (I'm Addicted To You)

Tabbed by: jedrzej

Intro

Some keyboard goes like that

e|-17--15------15------15-17----|-17--15------15------15-------|
B|----------17------17----------|----------17------17---17-----|
G|------------------------------|------------------------------|
D|------------------------------|------------------------------|
A|------------------------------|------------------------------|
E|------------------------------|------------------------------| x2

and guitar:

e|------------------------------|------------------------------|----|
B|------------------------------|------------------------------|----|
G|------------------------------|------------------------------|----|
D|------------------------------|------------------------------|----|
A|------------------------------|-5\---------------------------|-5\-|
E|------------------------0-3-4-|------------------------0-3-4-|----|

and then:

second part of intro and verses:

--------|--------------------------------|--------------------------------|
--------|--------------------------------|--------------------------------|
--------|--------------------------------|--------------------------------|
--------|--------------------------------|--------------------------------|
--------|--------------------------0-3-4-|5---5-3-5-3-5-6-7-7-7-7-7-------|
--0-3-4-|5---5-3-0---0-3-5-5-5-3-0-------|--------------------------0-3-4-|

chorus:

--------|--------------------------------|--------------------------------|
--------|--------------------------------|--------------------------------|
--------|5-------------------------------|2-------------------------------|
--------|5-------------------------------|2-------------------------------|
--------|3-------------------------------|0-------------------------------|
--------|3-------------------------------|0-------------------------------|

--------|--------------------------------|--------------------------------|
--------|--------------------------------|--------------------------------|
--------|5-------------------------------|7-7-7-7-7-7-7-7-9-9-9-9-9-------|
--------|5-------------------------------|7-7-7-7-7-7-7-7-9-9-9-9-9-------|
--------|3-------------------------------|5-5-5-5-5-5-5-5-7-7-7-7-7-------|
--------|3-------------------------------|5-5-5-5-5-5-5-5-7-7-7-7-7-0-3-4-|


Sorry, no solo :P
Tap to rate this tab
# A B C D E F G H I J K L M N O P Q R S T U V W X Y Z