Song name
# A B C D E F G H I J K L M N O P Q R S T U V W X Y Z

Adicts - Peculiar Music tab

Song:Peculiar Music
Album:Songs Of Praise
Artist:The Adicts
Genre:Punk Rock
Year:1981
Tuning:Standard (E,A,D,G,B,E)

Intro x2
E-13-12-13-12-10-8-10~~~--------------------|
B-------------------------6-5-6-5-3-1-3~~~--|
G-------------------------------------------|
D-------------------------------------------|
A-------------------------------------------|
E-------------------------------------------|

Verse 1 Pt.1 x3
E------------------------|
B-(P.M )--6-x---8-6---6--|
G-777777--7-x-7-7---7-7--|
D-777777-----------------|
A-555555-----------------|
E------------------------|

Verse 1 Pt.2 x1
E-------------------|
B-(P.M )--6-5-5-5B--|
G-777777------------|
D-777777------------|
A-555555------------|
E-------------------|

Chorus 1 x1
E-----------------|
B-----------------|
G------10~~--9~~--|
D-7~~--10~~--9~~--|
A-7~~---8~~--7~~--|
E-5~~-------------|

Then:
*Verse 2 Pt.1 x3
*Verse 2 Pt.2 x1
*Chorus 2 x1

Interlude 1 x2
E-13-12-13-12-10-8-10~~-------------------|
B------------------------6-5-6-5-3-1-3~~--|
G-----------------------------------------|
D-----------------------------------------|
A-----------------------------------------|
E-----------------------------------------|

Bridge x1
E------------------------------------------------|
B-10-9-7-6-5-5-6-6-5~~--10-9-7-6-5-5-6-5-5-3~~~--|
G------------------------------------------------|
D------------------------------------------------|
A------------------------------------------------|
E------------------------------------------------|

Then:
*Verse 3 Pt.1 x3
*Verse 3 Pt.2 x1

Chorus 3 x1
E-----------------|
B-----------------|
G------10~~--9~~--|
D-7----10~~--9~~--|
A-7~~---8~~--7~~--|
E-5~~-------------|

Interlude 2 x2
E-13-12-13-12-10-8-10~~-------------------|
B------------------------6-5-6-5-3-1-3~~--|
G-----------------------------------------|
D-----------------------------------------|
A-----------------------------------------|
E-----------------------------------------|

Outro Pt.1 x4
E--------------|
B-5B-5B-5B-5B--|
G--------------|
D--------------|
A--------------|
E--------------|

Outro Pt.2 x3
E-15-15-15--13-13--7-7-7--|
B-------------------------|
G-------------------------|
D-------------------------|
A-------------------------|
E-------------------------|

Song Order:
-Intro 1 x2
-Verse 1 Pt.1 x3
-Verse 1 Pt.2 x1
-Chorus 1 x1
-Verse 2 Pt.1 x3
-Verse 2 Pt.2 x1
-Chorus 2 x1
-Interlude 1 x2
-Bridge x1
-Verse 3 Pt.1 x3
-Verse 3 Pt.2 x1
-Chorus 3 x1
-Interlude 2 x2
-Outro Pt.1 x4
-Outro Pt.2 x3

Key:
P.m=Palm Mute
~=Let Ring Out
x=Mute The String

Here Is A Link To The Song If You Wanna Play Along:
http://www.youtube.com/watch?v=LAeEOWVz-tQ
Tap to rate this tab
# A B C D E F G H I J K L M N O P Q R S T U V W X Y Z