Song name
# A B C D E F G H I J K L M N O P Q R S T U V W X Y Z

Adicts - Tango tab

Song:Tango
Album:Songs Of Praise
Artist:The Adicts
Genre:Punk Rock
Year:1981
Tuning:Standard (E,A,D,G,B,E)

Intro 1 Pt.1 x1
E------------------|
B------------------|
G------------------|
D-5-5-3-333-2~~~~--|
A-5-5-3-333-2~~~~--|
E-3-3-1-111-0~~~~--|

Intro 1 Pt.2 x2
E------------------------------------------------|
B-----------------------------------------10-----|
G-4/5-5-5555--6/7-7-7777-------------9/10----10--|
D-4/5-5-5555--6/7-7-7777--6/7-7-7777-9/10--------|
A-2/3-3-3333--4/5-5-5555--6/7-7-7777-7/-8--------|
E-------------------------4/5-5-5555-------------|

Verse 1 Pt.1 x1
E------------------------------------------------|
B-----------------------------------------10-----|
G-4/5-5-5555--6/7-7-7777-------------9/10----10--|
D-4/5-5-5555--6/7-7-7777--6/7-7-7777-9/10--------|
A-2/3-3-3333--4/5-5-5555--6/7-7-7777-7/-8--------|
E-------------------------4/5-5-5555-------------|

Verse 1 Pt.2 x1
E-------------------------------------------|
B-------------------------------------------|
G-4/5-5-5555--6/7-7-7777--------------------|
D-4/5-5-5555--6/7-7-7777--6/7-7-7777--3-----|
A-2/3-3-3333--4/5-5-5555--6/7-7-7777--3x16--|
E-------------------------4/5-5-5555--1-----|
                                      .

Chorus 1 x3
E--------------------------------|
B--------------------------------|
G-9-99-10-1010-12121212----------|
D-9-99-10-1010-12121212--101010--|
A-7-77--8--8-8-10101010--101010--|
E-------------------------8-8-8--|

Post-Chorus 1 x1
E-----------------------|
B-----------------------|
G-12-1212-10-1010-9~~~--|
D-12-1212-10-1010-9~~~--|
A-10-1010--8--8-8-7~~~--|
E-----------------------|

Pre-Verse 1 x2
E------------------------------------------------|
B-----------------------------------------10-----|
G-4/5-5-5555--6/7-7-7777-------------9/10----10--|
D-4/5-5-5555--6/7-7-7777--6/7-7-7777-9/10--------|
A-2/3-3-3333--4/5-5-5555--6/7-7-7777-7/-8--------|
E-------------------------4/5-5-5555-------------|

Verse 2 Pt.1 x1
E-------------------------------------------|
B-------------------------------------------|
G-4/5-5-5555--6/7-7-7777--------------------|
D-4/5-5-5555--6/7-7-7777--6/7-7-7777--3-----|
A-2/3-3-3333--4/5-5-5555--6/7-7-7777--3x16--|
E-------------------------4/5-5-5555--1-----|
                                      .

Chorus 2 x3
E--------------------------------|
B--------------------------------|
G-9-99-10-1010-12121212----------|
D-9-99-10-1010-12121212--101010--|
A-7-77--8--8-8-10101010--101010--|
E-------------------------8-8-8--|

Post-Chorus 2 x1
E-----------------------|
B-----------------------|
G-12-1212-10-1010-9~~~--|
D-12-1212-10-1010-9~~~--|
A-10-1010--8--8-8-7~~~--|
E-----------------------|

Solo x1
E---------------------------------|
B---------------------------------|
G---------------------------------|
D-4-5-4-5-4-5555--6-7-6-7-6-7777--|
A---------------------------------|
E---------------------------------|

E----------------------------|
B----------------------------|
G----------------------------|
D-9-10-9-10-9-10--9-10-12~~--|
A----------------------------|
E----------------------------|

E---------------------------------|
B---------------------------------|
G---------------------------------|
D-4-5-4-5-4-5555--6-7-6-7-6-7777--|
A---------------------------------|
E---------------------------------|

E----------------|
B----------------|
G----------------|
D-10-9-7-5-3~~~--|
A----------------|
E----------------|

Chorus 3 x1
E--------------------------------------------------------|
B(             x3              )-------------------------|
G-9-99-10-1010-12121212-----------12-1212-10-1010--9~~~--|
D-9-99-10-1010-12121212--101010---12-1212-10-1010--9~~~--|
A-7-77--8--8-8-10101010--101010---10-1010--8--8-8--7~~~--|
E-------------------------8-8-8--------------------------|

Outro Pt.1 x2
E--------------------------------------------------------|
B(             x3              )-------------------------|
G-9-99-10-1010-12121212-----------12-1212-10-1010--------|
D-9-99-10-1010-12121212--101010---12-1212-10-1010--3-----|
A-7-77--8--8-8-10101010--101010---10-1010--8--8-8--3x16--|
E-------------------------8-8-8--------------------1-----|
                                                   .

Outro Pt.2 x1
E--------------------------------------------------------|
B(             x3              )-------------------------|
G-9-99-10-1010-12121212-----------12-1212-10-1010--9~~~--|
D-9-99-10-1010-12121212--101010---12-1212-10-1010--9~~~--|
A-7-77--8--8-8-10101010--101010---10-1010--8--8-8--7~~~--|
E-------------------------8-8-8--------------------------|

Song Order:
*Intro 1 Pt.1 x1
*Intro 1 Pt.2 x2
*Verse 1 Pt.1 x1
*Verse 1 Pt.2 x1
*Chorus 1 x3
*Post-Chorus 1 x1
*Pre-Verse 1 x2
*Verse 2 Pt.1 x1
*Chorus 2 x3
*Post-Chorus 2 x1
*Solo x1
*Chorus 3 x1
*Outro Pt.1 x2
*Outro Pt.2 x1

*Here Is A Link If You Wanna Play Along:
http://www.youtube.com/watch?v=7w7s-MnREpA

*Don't Forget To Rate And Comment If You
Liked The Tab, And Comment Any Corrections,
I Welcome Corrections.
Tap to rate this tab
 
# A B C D E F G H I J K L M N O P Q R S T U V W X Y Z