Guitaretab - guitar tabs
Song name
# A B C D E F G H I J K L M N O P Q R S T U V W X Y Z

Adicts - Jellybaby tab

adicts - jellybaby

intro
e|-----------------------|
B|-----1----0------------|
G|-2--2-4--2-------------|
D|-2----4----------------|
A|-0----2----------------|
E|-----------------------|
[ Tab from: http://www.guitaretab.com/a/adicts/57405.html ]
verse
e|--------------|
B|--------------|
G|-2-----4------|
D|-2-----4------|
A|-0-----2------|
E|--------------|

pre-ch.
e|-------------------------|
B|-------------------------|
G|-7--10---11---11--10-9---|
D|-7--10---11---11--10-9---|
A|-5--8----9----9---8--7---|
E|-------------------------|

ch.
e|-----------|
B|-----------|
G|-7---------|
D|-7---------|
A|-5---------|
E|-----------|
Related for Jellybaby tab
Jellybaby chords by Adicts