Song name
# A B C D E F G H I J K L M N O P Q R S T U V W X Y Z

Adicts - Football Fairy Story tab

Help us improve GuitareTab! Take a short survey!
Cho.
e|---------------------------------------------------------------------------|
B|---------------------------------------------------------------------------|
G|--10--11-------------------------------------------------------------------|
D|--10--11-11----------------------------------------------------------------|
A|--8---9--11----------------------------------------------------------------|
E|---------9-----------------------------------------------------------------|

ver.
e|---------------------------------------------------------------------------|
B|---------------------------------------------------------------------------|
G|---------------------------------------------------------------------------|
D|---11----------------------------------------------------------------------|
A|---11----------------------------------------------------------------------|
E|---9-----------------------------------------------------------------------|

2 ver.
e|-------------------------------------------------------------------------------|
B|-------------------------------------------------------------------------------|
G|-------------------------------------------------------------------------------|
D|-6---11------------------------------------------------------------------------|
A|-6---11------------------------------------------------------------------------|
E|-4---9-------------------------------------------------------------------------|
Related for Football Fairy Story tab