Song name
# A B C D E F G H I J K L M N O P Q R S T U V W X Y Z

Adicts - Peculiar Music tab

Help us improve GuitareTab! Take a short survey!
Band: The Adicts
Song: Peculiar Music

tabbed by jam9383@yahoo.com

Intro
e-13-12-13-12-10-8-10~------------------------------------------------|
B-----------------------6-5-6-5-3-1-3~--------------------------------|
G---------------------------------------------------------------------|
D---------------------------------------------------------------------|
A---------------------------------------------------------------------|
E---------------------------------------------------------------------|

Verse

e--Palm MUte-|-----------------|----|--Palm Mute-----------------------|
B---------------6-x---8-6---6--|---||---------------6-5-5-5b-----------|
G-7-7-7-7-7-7---7-x-7-7---7-7--|----|-7-7-7-7-7-7----------------------|
D-7-7-7-7-7-7------------------|-X3-|-7-7-7-7-7-7----------------------|
A-5-5-5-5-5-5------------------|----|-5-5-5-5-5-5----------------------|
E------------------------------|----|----------------------------------|

Chorus

e---------------------------------------------------------------------|
B---------------------------------------------------------------------|
G----------10-------9-------------------------------------------------|
D--7-------10-------9-------------------------------------------------|
A--7-------8--------7-------------------------------------------------|
E--5------------------------------------------------------------------|

Bridge
e---------------------------------------------------------------------|
B---10-9-7-6-5-5-6-6-5~----10-9-7-6-5-5-6-5-5-3~----------------------|
G---------------------------------------------------------------------|
D---------------------------------------------------------------------|
A---------------------------------------------------------------------|
E---------------------------------------------------------------------|


Outro
                     with slight bend and vibrato
e-------------|-------15-15-15----13-13-----7-7-7----------------------|
B-5b-5b-5b-5b-|--------------------------------------------------------|
G-------------|--------------------------------------------------------|
D-------------|--------------------------------------------------------|
A-------------|--------------------------------------------------------|
E-------------|--------------------------------------------------------|

If any corrections are needed contact me and rate tabs
Related for Peculiar Music tab