Song name
# A B C D E F G H I J K L M N O P Q R S T U V W X Y Z

Adicts - Organized Confusion tab

Help us improve GuitareTab! Take a short survey!
Band: Adicts
Song: Organized Confusion

tabbed by jam9383@yahoo.com


Intro/Outro

e---------------------------------------------------------------------|
B---------------------------------------------------------------------|
G--7-7-7-7-7-7-7-7----------------------------------------------------|
D--7-7-7-7-7-7-7-7--8-8-8-8-8-8-8-8-----------------------------------|
A--5-5-5-5-5-5-5-5--8-8-8-8-8-8-8-8-----------------------------------|
E-------------------6-6-6-6-6-6-6-6-----------------------------------|

Optional notes to double in ()
e---------------------------------------------------------------------|
B--8-7-8-7-8-7-8-7----------------------------------------------------|
G---------------------------------------------------------------------|
D-------------------(8)-(8)-------------------------------------------|
A---------------------------------------------------------------------|
E---------------------------------------------------------------------|

Bridge 1
e---------------------------------------------------------------------|
B-3-3-3-3-3--6-6-6-5-5-5-6-6-6-8-8-8-6-6-6-8-8-8--11~-----------------|
G---------------------------------------------------------------------|
D---------------------------------------------------------------------|
A---------------------------------------------------------------------|
E---------------------------------------------------------------------|

variation
same phrase ending an octave down(same note)
e-------------------------------------------------------------------------|
B-3-3-3-3-3--6-6-6-5-5-5-6-6-6-8-8-8-6-6-6-8-8-8--------------------------|
G-------------------------------------------------3~----------------------|
D-------------------------------------------------------------------------|
A-------------------------------------------------------------------------|
E-------------------------------------------------------------------------|
Bridge 2

e--12b~--12~---8~---10~-----------------------------------------------|
B---------------------------------------------------------------------|
G---------------------------------------------------------------------|
D---------------------------------------------------------------------|
A---------------------------------------------------------------------|
E---------------------------------------------------------------------|

order:
Intro
Bridge 1

Bridge 2
Intro chords only

any comments/corrections contact me,please rate
Related for Organized Confusion tab