Song name
# A B C D E F G H I J K L M N O P Q R S T U V W X Y Z

Adicts - Jellybabie tab

intro
e|-------------------------|
B|-----2----2------2-----2-|
G|-2--1-4--0---5--1---9-0--|
D|-2----4------5------9----|
A|-0----2------3------7----|
E|-------------------------|

verse
e|------------------|
B|------------------|
G|-2----4----5----9-|
D|-2----4----3----9-|
A|-0----2----3----7-|
E|------------------|

pre-ch.
e|-------------------------|
B|-------------------------|
G|-7--9---10---10--9--7----|
D|-7--9---10---10--9--7----|
A|-5--7---8----8---7--5----|
E|-------------------------|

ch.
e|-----------|
B|-----------|
G|-9---------|
D|-9---------|
A|-7---------|
E|-----------|
Tap to rate this tab
# A B C D E F G H I J K L M N O P Q R S T U V W X Y Z