Song name
# A B C D E F G H I J K L M N O P Q R S T U V W X Y Z

Admiral Freebee - Einstein Brain tab

Standard E Tuning

E|-------8------------------------------------5---------8-|
B|----------------------------------------5h8---8p5-8-5---|
G|-5h7p5---------------------5---9-9-7-5------------------|
D|---------------------5\7-7---7--------------------------|
A|-------------5-7-5--------------------------------------|
E|---------5h8-------8------------------------------------|

E|---5--------5---5--5\8-8-7---|
B|-8---8-5--8---8------------8-|
G|-----------------------------|
D|-----------------------------|
A|-----------------------------|
E|-----------------------------|
Tap to rate this tab
# A B C D E F G H I J K L M N O P Q R S T U V W X Y Z