Song name
# A B C D E F G H I J K L M N O P Q R S T U V W X Y Z

Admiral Freebee - Oh Darkness tab

Hello everybody,

This song is played with no capo and in standard tuning:
In 'my' version, there are two guitars.

Intro:

Guitar 1:

e--0-0-0-0--0-0-0-0--0--0--0--0---0-0-0-0--\--|
B--5-5-5-5--7-7-7-7--12-12-12-12--9-9-9-9-----|
G---------------------------------------------|
D---------------------------------------------| x3
A---------------------------------------------|
E---------------------------------------------|

e--0-0-0-0--0-0-0-0--0-0-0-0--0-0-0-0------\-|
B--4-5-5-5--4-5-5-5--4-5-5-5--4-5-5-5--------|
G--------------------------------------------|
D--------------------------------------------|
A--------------------------------------------|
E--------------------------------------------|
(You can use a hammer-on or slide from 4 to 5)


Verse:
Guitar 1:
e--0-0-0-0--0-0-0-0--0-0-0-0--0-0-0-0--0-0-0-0--0-0-0-0--0-0-0-0--0-0-0-0--\--|
B--5-5-5-5--5-5-5-5--5-5-5-5--5-5-5-5--4-4-4-4--4-4-4-4--4-4-4-4--4-4-4-4-----|
G-----------------------------------------------------------------------------|
D-----------------------------------------------------------------------------| x2
A-----------------------------------------------------------------------------|
E-----------------------------------------------------------------------------|

Guitar 2:
  C#m               C#m                E                E
e--9-----------------9-----------------0----------------0---------------|
B--9-----------------9-----------------0----------------0---------------|
G--9-----------------9-----------------1----------------1---------------|
D--11----------------11----------------2----------------2---------------|  x2
A--11----------------11----------------2----------------2---------------|
E--9-----------------9-----------------0----------------0---------------|


Guitar 1:
e--7-7-7-7--7-7-7-7--7-7-7-7--7-7-7-7--5-5-5-5--5-5-5-5--5-5-5-5--5-5-5-5--\--|
B--7-7-7-7--7-7-7-7--7-7-7-7--7-7-7-7--5-5-5-5--5-5-5-5--5-5-5-5--5-5-5-5-----|
G-----------------------------------------------------------------------------|
D-----------------------------------------------------------------------------| x2
A-----------------------------------------------------------------------------|
E-----------------------------------------------------------------------------|


Guitar 2:
   B                 B                 A                A
e--7-----------------7-----------------5----------------5---------------|
B--7-----------------7-----------------5----------------5---------------|
G--8-----------------8-----------------6----------------6---------------|
D--9-----------------9-----------------7----------------7---------------|
A--9-----------------9-----------------7----------------7---------------|
E--7-----------------7-----------------5----------------5---------------|

Chorus:
Guitar 1:
   E                 E                 B                B
e-----------------------------------------------------------------------|
B-----------------------------------------------------------------------|
G--9-----------------9-----------------4----------------4---------------|
D--x-----------------x-----------------x----------------x---------------|
A--7-----------------7-----------------2----------------2---------------|
E-(0)---------------(0)---------------(0)--------------(0)--------------|

  C#m               C#m                A                A
e-----------------------------------------------------------------------|
B-----------------------------------------------------------------------|
G--9-----------------9--------------------------------------------------|
D--x-----------------x-----------------7----------------7---------------|
A--7-----------------7-----------------x----------------x---------------|
E-(0)---------------(0)----------------5----------------5---------------|

Guitar 2:
This can also be played on the A-string instead of the E-string.

   E                 E                 B                B
e--0-----------------0-----------------7----------------7---------------|
B--0-----------------0-----------------7----------------7---------------|
G--1-----------------1-----------------8----------------8---------------|
D--2-----------------2-----------------9----------------9---------------|
A--2-----------------2-----------------9----------------9---------------|
E--0-----------------0-----------------7----------------7---------------|

  C#m               C#m                A                A
e--9-----------------9-----------------5----------------5---------------|
B--9-----------------9-----------------5----------------5---------------|
G--9-----------------9-----------------6----------------6---------------|
D--11----------------11----------------7----------------7---------------|
A--11----------------11----------------7----------------7---------------|
E--9-----------------9-----------------5----------------5---------------|

Bridge:

Guitar 1:
(plays the first part of the verse)

e--0-0-0-0--0-0-0-0--0-0-0-0--0-0-0-0--0-0-0-0--0-0-0-0--0-0-0-0--0-0-0-0--\--|
B--5-5-5-5--5-5-5-5--5-5-5-5--5-5-5-5--4-4-4-4--4-4-4-4--4-4-4-4--4-4-4-4-----|
G-----------------------------------------------------------------------------|
D-----------------------------------------------------------------------------| x2
A-----------------------------------------------------------------------------|
E-----------------------------------------------------------------------------|

Guitar 2:

   A                 B                C#m               B
e--5-----------------7-----------------9----------------7---------------|
B--5-----------------7-----------------9----------------7---------------|
G--6-----------------8-----------------9----------------8---------------|
D--7-----------------9-----------------11---------------9---------------| x2
A--7-----------------9-----------------11---------------9---------------|
E--5-----------------7-----------------9----------------7---------------|

Outro:
Guitar 1:
e--0-0-0-0--0-0-0-0--0-0-0-0--0-0-0-0--0-0-0-0--0-0-0-0--0-0-0-0--0-0-0-0--\-|
B--5-5-5-5--5-5-5-5--5-5-5-5--5-5-5-5--4-4-4-4--4-4-4-4--4-4-4-4--4-4-4-4----|
G----------------------------------------------------------------------------|
D----------------------------------------------------------------------------|
A----------------------------------------------------------------------------|
E----------------------------------------------------------------------------|

                                       A
e--0-0-0-0--0-0-0-0--0-0-0-0--0-0-0-0------|
B--5-5-5-5--5-5-5-5--5-5-5-5--5-5-5-5------|
G------------------------------------------|
D--------------------------------------7---|
A--------------------------------------x---|
E--------------------------------------5---|

Guitar 2:
plays the Chorus but ends at the first A-chord:
   E                 E                 B                B
e--0-----------------0-----------------7----------------7---------------|
B--0-----------------0-----------------7----------------7---------------|
G--1-----------------1-----------------8----------------8---------------|
D--2-----------------2-----------------9----------------9---------------|
A--2-----------------2-----------------9----------------9---------------|
E--0-----------------0-----------------7----------------7---------------|

  C#m               C#m                A
e--9-----------------9-----------------5--------------------------------|
B--9-----------------9-----------------5--------------------------------|
G--9-----------------9-----------------6--------------------------------|
D--11----------------11----------------7--------------------------------|
A--11----------------11----------------7--------------------------------|
E--9-----------------9-----------------5--------------------------------|

ORDER:

Intro x2 (The second time, the second guitar plays the chorus once along with the intro)
Verse x1
Chorus x1 (The first guitar plays the intro instead his part of the chorus)
Verse x1
Chorus x1
Verse x1
Chorus x2
Bridge x1
Chorus x2
Chorus x1 (The first guitar plays the intro instead his part of the chorus)
Outro x1
Tap to rate this tab
# A B C D E F G H I J K L M N O P Q R S T U V W X Y Z