Guitaretab - guitar tabs
Song name
# A B C D E F G H I J K L M N O P Q R S T U V W X Y Z

Admiral Freebee - Einstein Brain tab

Einstein Brain by Admiral Freebee

Intro

    Fmaj7   C        E      Am

e|---1-1-x---------------------0------------------|
B|---1-1-x---1-1-1-x-----------1------------------|
G|---2-2-x---0-0-0-x---1-x-1---2------------------|
D|---3-3-x---2-2-2-x---2-x-2---2------------------|
A|-----------3-3-3-x---2-x-2----------------------|
E|---------------------0---0----------------------|

Where Iíve put the xxx for muting, you can also play open strings
For the rythemn effect. Choose what you prefer.

Verse

Same as intro.

Chorus


 F      E
Complexity

       Am  (G)    F
Of the human psyche

E                             F
She's flushing my grey cells down the drain

G                              G G
Tomorrow I'll have

Only Singing         Play Verse
My einstein brain

[ Tab from: http://www.guitaretab.com/a/admiral-freebee/61744.html ]
Solo
E-----------------------------------------------------------------|
B--------------------------5---------------------------8-10-8---8-|
G--5-5------------------5----5-----5---5---5---5ó-7h9---------9---|
D-------------------5-7----------7---7---7---7--------------------|
A------5-7-5-7----------------------------------------------------|
E--------------8--------------------------------------------------|

E-----------------------------------------------------------------|
B-10-8-10-8---8-------------------8h10-13-15b-15-13-15-13---------|
G-----------9------9h10p9h10p9------------------------------------|
D-----------------------------------------------------------------|
A-----------------------------------------------------------------|
E-----------------------------------------------------------------|


After the solo itís F,E,Am,F 2x
Then ďI used to go to the operaĒ E,F,E,G (picking)

Little riff

E----------------------------------------------------------------|
B----------------------------------------------------------------|
G----------------------------------------------------------------|
D----------------------------------------------------------------|
A-----2-3-7b7----------------------------------------------------|
E-3-5------------------------------------------------------------|

And back the verse.
Related for Einstein Brain tab