Song name
# A B C D E F G H I J K L M N O P Q R S T U V W X Y Z

Adolescents - Rip It Up tab

song: rip it up
by: adolescents

verse1
E---------------------------------------------------------------------|
B---------------------------------------------------------------------|
G---------------------------------------------------------------------|
D--777777777777-10101010------------------9999------------------------|
A--555555555555--8-8-8-8-1010101010101010-7777-9999-1010101010101010--|
E-------------------------8-8-8-8-8-8-8-8------7777--8-8-8-8-8-8-8-8--|

verse2
E---------------------------------------------------------------------|
B---------------------------------------------------------------------|
G---------------------------------------------------------------------|
D--777777777777-10101010------------------9999------------------------|
A--555555555555--8-8-8-8-1010101010101010-7777-9999-1010101010101010--|
E-------------------------8-8-8-8-8-8-8-8------7777--8-8-8-8-8-8-8-8--|
...\    pm    /

chorus
E---------------------------------------------------------------------------|
B---------------------------------------------------------------------------|
G---------------------------------------------------------------------------|
D--77777777-99-77-9-----------------------------77777777-99-77-9------------|
A--55555555-77-55-7-9-77777777-1010101010101010-55555555-77-55-7-9-77777777-|
E-------------------7-55555555--8-8-8-8-8-8-8-8------------------7-55555555-|

timing:
verse1..2x
verse2..2x
chorus..1x
verse1..2x
verse2..2x
chorus..1x

thers some other crap in the song like a solo i think but i dont know what it is. sorry 
couldnt finish the timing.
Tap to rate this tab
# A B C D E F G H I J K L M N O P Q R S T U V W X Y Z