Song name
# A B C D E F G H I J K L M N O P Q R S T U V W X Y Z

Adolescents - I Hate Children tab

The Adolescents - I Hate Children
Tuning: Standard
Questions? PM me about it. ^_^

     E  S E  S E  E  S E  S E     E  S E  S E  E  E  E  E   
E||----------------------------|---------------------------|
B||----------------------------|---------------------------|
G||----------------------------|---------------7-----7-----|
D||--5--5-5--5-5--8--8-8--8-8--|--7--7-7--7-7--7--7--7--7--|
A||--5--5-5--5-5--8--8-8--8-8--|--7--7-7--7-7--5--7--5--7--|
E||--3--3-3--3-3--6--6-6--6-6--|--5--5-5--5-5-----5-----5--|


  E  S E  S E  E  S E  S E     E  S E  S E  E  E  E  E   
----------------------------|---------------------------|
----------------------------|---------------------------|
----------------------------|---------------7-----7-----|
--5--5-5--5-5--8--8-8--8-8--|--7--7-7--7-7--7--7--7--7--|
--5--5-5--5-5--8--8-8--8-8--|--7--7-7--7-7--5--7--5--7--|
--3--3-3--3-3--6--6-6--6-6--|--5--5-5--5-5-----5-----5--|


    E  S E  S E  E  S E  S E     E  S E  S E  E  E  E  E   
|-----------------------------|---------------------------|
|-----------------------------|---------------------------|
|*----------------------------|---------------7-----7-----|
|*--5--5-5--5-5--8--8-8--8-8--|--7--7-7--7-7--7--7--7--7--|
|---5--5-5--5-5--8--8-8--8-8--|--7--7-7--7-7--5--7--5--7--|
|---3--3-3--3-3--6--6-6--6-6--|--5--5-5--5-5-----5-----5--|


  E  S E  S E  E  S E  S E     E  S E  S E  E  E  E  E     
----------------------------|----------------------------||
----------------------------|----------------------------||
----------------------------|---------------7-----7-----*||
--5--5-5--5-5--8--8-8--8-8--|--7--7-7--7-7--7--7--7--7--*||
--5--5-5--5-5--8--8-8--8-8--|--7--7-7--7-7--5--7--5--7---||
--3--3-3--3-3--6--6-6--6-6--|--5--5-5--5-5-----5-----5---||


   E  S E  S E  E  S E  S E      E   S  E   S  E   E   S  E   S  E     
-----------------------------|---------------------------------------||
-----------------------------|---------------------------------------||
*--9--9-9--9-9---------------|--------------------------------------*||
*--9--9-9--9-9--7--7-7--7-7--|--10--10-10--10-10--10--10-10--10-10--*||
---7--7-7--7-7--7--7-7--7-7--|--10--10-10--10-10--10--10-10--10-10---||
----------------5--5-5--5-5--|---8---8--8---8--8---8---8--8---8--8---||


  E  S E  S E  E  S E  S E     E  S E  S E  E  S E  S E   
----------------------------|----------------------------|
----------------------------|----------------------------|
--7--7-7--7-7--7--7-7--7-7--|----------------------------|
--7--7-7--7-7--7--7-7--7-7--|--5--5-5--5-5--8--8-8--8-8--|
--5--5-5--5-5--5--5-5--5-5--|--5--5-5--5-5--8--8-8--8-8--|
----------------------------|--3--3-3--3-3--6--6-6--6-6--|


  E  S E  S E  E  E  E  E     E  S E  S E  E  S E  S E   
---------------------------|----------------------------|
---------------------------|----------------------------|
---------------7-----7-----|----------------------------|
--7--7-7--7-7--7--7--7--7--|--5--5-5--5-5--8--8-8--8-8--|
--7--7-7--7-7--5--7--5--7--|--5--5-5--5-5--8--8-8--8-8--|
--5--5-5--5-5-----5-----5--|--3--3-3--3-3--6--6-6--6-6--|


  E  S E  S E  E  E  E  E       E  S E  S E  E  S E  S E   
---------------------------||-----------------------------|
---------------------------||-----------------------------|
---------------7-----7-----||*----------------------------|
--7--7-7--7-7--7--7--7--7--||*--5--5-5--5-5--3--3-3--3-3--|
--7--7-7--7-7--5--7--5--7--||---5--5-5--5-5--3--3-3--3-3--|
--5--5-5--5-5-----5-----5--||---3--3-3--3-3--1--1-1--1-1--|


  E  S E  S E  E  E  E  E     E  S E  S E  E  S E  S E   
---------------------------|----------------------------|
---------------------------|----------------------------|
---------------7-----7-----|----------------------------|
--7--7-7--7-7--7--7--7--7--|--5--5-5--5-5--8--8-8--8-8--|
--7--7-7--7-7--5--7--5--7--|--5--5-5--5-5--8--8-8--8-8--|
--5--5-5--5-5-----5-----5--|--3--3-3--3-3--6--6-6--6-6--|


  E  S E  S E  E  E  E  E        E  S E  S E  E  S E  S E   
----------------------------||-----------------------------|
----------------------------||-----------------------------|
---------------7-----7-----*||*--9--9-9--9-9---------------|
--7--7-7--7-7--7--7--7--7--*||*--9--9-9--9-9--7--7-7--7-7--|
--7--7-7--7-7--5--7--5--7---||---7--7-7--7-7--7--7-7--7-7--|
--5--5-5--5-5-----5-----5---||----------------5--5-5--5-5--|


   E   S  E   S  E   E   S  E   S  E       E  S E  S E  E  S E  S E   
---------------------------------------||----------------------------|
---------------------------------------||----------------------------|
--------------------------------------*||--7--7-7--7-7--7--7-7--7-7--|
--10--10-10--10-10--10--10-10--10-10--*||--7--7-7--7-7--7--7-7--7-7--|
--10--10-10--10-10--10--10-10--10-10---||--5--5-5--5-5--5--5-5--5-5--|
---8---8--8---8--8---8---8--8---8--8---||----------------------------|


  E  S E  S E  E  S E  S E     E  S E  S E  E  E  E  E   
----------------------------|---------------------------|
----------------------------|---------------------------|
----------------------------|---------------7-----7-----|
--5--5-5--5-5--8--8-8--8-8--|--7--7-7--7-7--7--7--7--7--|
--5--5-5--5-5--8--8-8--8-8--|--7--7-7--7-7--5--7--5--7--|
--3--3-3--3-3--6--6-6--6-6--|--5--5-5--5-5-----5-----5--|


  E  S E  S E  E  S E  S E     E  S E  S E  E  E  E  E   
----------------------------|---------------------------|
----------------------------|---------------------------|
----------------------------|---------------7-----7-----|
--5--5-5--5-5--8--8-8--8-8--|--7--7-7--7-7--7--7--7--7--|
--5--5-5--5-5--8--8-8--8-8--|--7--7-7--7-7--5--7--5--7--|
--3--3-3--3-3--6--6-6--6-6--|--5--5-5--5-5-----5-----5--|


    E  S E  S E  E  S E  S E     E  S E  S E  E  E  E  E   
|-----------------------------|---------------------------|
|-----------------------------|---------------------------|
|*----------------------------|---------------7-----7-----|
|*--5--5-5--5-5--8--8-8--8-8--|--7--7-7--7-7--7--7--7--7--|
|---5--5-5--5-5--8--8-8--8-8--|--7--7-7--7-7--5--7--5--7--|
|---3--3-3--3-3--6--6-6--6-6--|--5--5-5--5-5-----5-----5--|


  E  S E  S E  E  S E  S E     E  S E  S E  E  E  E  E     
----------------------------|----------------------------||
----------------------------|----------------------------||
----------------------------|---------------7-----7-----*||
--5--5-5--5-5--8--8-8--8-8--|--7--7-7--7-7--7--7--7--7--*||
--5--5-5--5-5--8--8-8--8-8--|--7--7-7--7-7--5--7--5--7---||
--3--3-3--3-3--6--6-6--6-6--|--5--5-5--5-5-----5-----5---||


   E  S E  S E  E  S E  S E      E   S  E   S  E   E   S  E   S  E     
-----------------------------|---------------------------------------||
-----------------------------|---------------------------------------||
*--9--9-9--9-9---------------|--------------------------------------*||
*--9--9-9--9-9--7--7-7--7-7--|--10--10-10--10-10--10--10-10--10-10--*||
---7--7-7--7-7--7--7-7--7-7--|--10--10--1--10-10--10--10-10--10-10---||
----------------5--5-5--5-5--|---8---8--8---8--8---8---8--8---8--8---||


  E  S E  S E  E  S E  S E       E  S E  S E  E  S E  S E   
----------------------------||-----------------------------|
----------------------------||-----------------------------|
--7--7-7--7-7--7--7-7--7-7--||*----------------------------|
--7--7-7--7-7--7--7-7--7-7--||*--5--5-5--5-5--8--8-8--8-8--|
--5--5-5--5-5--5--5-5--5-5--||---5--5-5--5-5--8--8-8--8-8--|
----------------------------||---3--3-3--3-3--6--6-6--6-6--|


  E  S E  S E  E  E  E  E     E  S E  S E  E  S E  S E   
---------------------------|----------------------------|
---------------------------|----------------------------|
---------------7-----7-----|----------------------------|
--7--7-7--7-7--7--7--7--7--|--5--5-5--5-5--8--8-8--8-8--|
--7--7-7--7-7--5--7--5--7--|--5--5-5--5-5--8--8-8--8-8--|
--5--5-5--5-5-----5-----5--|--3--3-3--3-3--6--6-6--6-6--|


  E  S E  S E  E  E  E  E       E  E  E  E  E  E  E  E     W                 
----------------------------||--------------------------|-------------------|
----------------------------||--------------------------|-------------------|
---------------7-----7-----*||--7-----7-----7-----7-----|-------------------|
--7--7-7--7-7--7--7--7--7--*||--7--7--7--7--7--7--7--7--|--5----------------|
--7--7-7--7-7--5--7--5--7---||--5--7--5--7--5--7--5--7--|--5----------------|
--5--5-5--5-5-----5-----5---||-----5-----5-----5-----5--|--3----------------|

Duration Legend
---------------
W - whole
H - half
Q - quarter
E - 8th
S - 16th
Tap to rate this tab
 
# A B C D E F G H I J K L M N O P Q R S T U V W X Y Z