Guitaretab - guitar tabs
Song name
# A B C D E F G H I J K L M N O P Q R S T U V W X Y Z

Adolescents - Who Is Who tab

song: who is who
by: adolescents

pm means palm mute
~ means ring
v means vibrate string

intro
E-------------------------------------------|
B-------------------------------------------|
G-------------------------------------------|
D--7777777-7-7777777-7-7777777-7-7777777-7--|
A--5555555-5-5555555-5-5555555-5-5555555-5--|
E-------------------------------------------|
...\ pm  /...\ pm  /...\ pm  /...\ pm  /

verse
E------------------------------------------------------|
B------------------------------------------------------|
G------------------------------------------------------|
D--5555555-5-5555555-5-7777777-7-7777777-7-5---555555--|
A--3333333-3-3333333-3-5555555-5-5555555-5-3---333333--|
E------------------------------------------------------|
...\ pm  /...\ pm  /...\ pm  /...\ pm  /.......\ pm /

chorus
E-----------------------------------------------------|
B-----------------------------------------------------|
G-----------------------------------------------------|
D---------1010-777777-1010--------1010-7777-10101010--|
A--888888--8-8-555555--8-8-888888--8-8-5555--8-8-8-8--|
E--666666------------------666666---------------------|
[ Tab from: http://www.guitaretab.com/a/adolescents/63847.html ]
E---------------------------------------------|
B---------------------------------------------|
G---------------------------------------------|
D--7777-10101010-7777-10101010-7777-10101010--|
A--5555--8-8-8-8-5555--8-8-8-8-5555--8-8-8-8--|
E---------------------------------------------|

solo
E--16~~-----------------11-11-11-----------------------9-7----9-7----9-7-9v-|
B--------------------14-11-11-11-10-1212-10-1212-10-12-----10-----10--------|
G-------121212121212--------------------------------------------------------|
D---------------------------------------------------------------------------|
A---------------------------------------------------------------------------|
E---------------------------------------------------------------------------|

end
E---------------------------------------------------------------------------|
B---------------------------------------------------------------------------|
G---------------------------------------------------------------------------|
D----------------------------------7777-10101010-7777-10101010-7-10-7-10-77-|
A-7-77-777-8-88-888-10-1010-101010-5555--8-8-8-8-5555--8-8-8-8-5--8-5--8-55-|
E-5-55-555-6-66-666--8--8-8--8-8-8------------------------------------------|

timing:
intro...2x
verse...1x
chorus..1x
intro...1x
verse...1x
chorus..1x
solo....1x
chorus..1x
end.....1x
Related for Who Is Who tab
Who Is Who chords by Adolescents