Song name
# A B C D E F G H I J K L M N O P Q R S T U V W X Y Z

Adolescents - Word Attack tab

song: word attack
by: adolescents

verse
E---------|
B---------|
G---------|
D--66666--|
A--44444--|
E---------|

pre chorus
E------------|
B------------|
G------------|
D--77777777--|
A--55555555--|
E------------|

chorus
E--------------------|
B--------------------|
G--------------------|
D--------------------|
A--2-3-4-3--2-3-4-5--|
E--0-1-2-1--0-1-2-3--|

solo
E-------------------------------------|
B-------------------------------------|
G--7-------9-------10-------12--------|
D--x-(16x)-x-(16x)--x-(16x)--x-(16x)--|
A--5-------7--------8-------10--------|
E-------------------------------------|

timing:
verse.......8x
pre chorus..8x
chorus......4x
verse.......8x
pre chorus..8x
chorus......4x
verse.......8x
solo........1x
chorus......8x
Tap to rate this tab
 
# A B C D E F G H I J K L M N O P Q R S T U V W X Y Z