Song name
# A B C D E F G H I J K L M N O P Q R S T U V W X Y Z

Adrenalin Od - Status Symbol tab

-------------------------------------------------------------------------------
                             Status Symbol - Adrenalin O.D.
-------------------------------------------------------------------------------


Tuning:Standard

Intro

e|-----------|
B|-----------|
G|-----6-----|
D|-----6-----|
A|-----4-----|
E|-----------|
                                    x6
e|---------------------------------|
B|---------------------------------|
G|--6-6-6-6---------9-9-9-9---9----|
D|--6-6-6-6-6-6-6-6-9-9-9-9-9-9-9--|
A|--4-4-4-4-6-6-6-6-7-7-7-7-9-7-9--|
E|----------4-4-4-4---------7---7--|
                     x4
e|------------------|
B|------------------|
G|--6-6-6-6--9-7-9--|
D|--6-6-6-6--9-7-9--|
A|--4-4-4-4--7-5-7--|
E|------------------|

e|----------------------------------|
B|----------------------------------|
G|-------------------9-9-9-9---9----|
D|--9-9-9-9--9-9-9-9-9-9-9-9-9-9-9--|
A|--9-9-9-9--9-9-9-9-7-7-7-7-9-7-9--|
E|--7-7-7-7--7-7-7-7---------7---7--|
                     x2
e|------------------|
B|------------------|
G|--6-6-6-6--9-7-9--|
D|--6-6-6-6--9-7-9--|
A|--4-4-4-4--7-5-7--|
E|------------------|

 Chorus 
                                   x4
e|---------------------------------|
B|---------------------------------|
G|--6-6-6-6---------9-9-9-9---9----|
D|--6-6-6-6-6-6-6-6-9-9-9-9-9-9-9--|
A|--4-4-4-4-6-6-6-6-7-7-7-7-9-7-9--|
E|----------4-4-4-4---------7---7--|
                     x4
e|------------------|
B|------------------|
G|--6-6-6-6----9----|
D|--6-6-6-6--9-9-9--|
A|--4-4-4-4--9-7-9--|
E|-----------7---7--|

e|----------------------------------|
B|----------------------------------|
G|-------------9---------------7----|
D|--9-9-9-9--9-9-9--7-7-7-7--7-7-7--|
A|--9-9-9-9--9-7-9--7-7-7-7--7-5-7--|
E|--7-7-7-7--7---7--5-5-5-5--5---5--|

                     x2
e|------------------|
B|------------------|
G|--6-6-6-6----9----|
D|--6-6-6-6--9-9-9--|
A|--4-4-4-4--9-7-9--|
E|-----------7---7--|

 Chorus 
                                   x4
e|---------------------------------|
B|---------------------------------|
G|--6-6-6-6---------9-9-9-9---9----|
D|--6-6-6-6-6-6-6-6-9-9-9-9-9-9-9--|
A|--4-4-4-4-6-6-6-6-7-7-7-7-9-7-9--|
E|----------4-4-4-4---------7---7--|
                     x4
e|------------------|
B|------------------|
G|--6-6-6-6--9-7-9--|
D|--6-6-6-6--9-7-9--|
A|--4-4-4-4--7-5-7--|
E|------------------|

e|----------------------------------|
B|----------------------------------|
G|-------------------9-9-9-9---9----|
D|--9-9-9-9--9-9-9-9-9-9-9-9-9-9-9--|
A|--9-9-9-9--9-9-9-9-7-7-7-7-9-7-9--|
E|--7-7-7-7--7-7-7-7---------7---7--|
                     x2
e|------------------|
B|------------------|
G|--6-6-6-6--9-7-9--|
D|--6-6-6-6--9-7-9--|
A|--4-4-4-4--7-5-7--|
E|------------------|

 Chorus 
                                   x4
e|---------------------------------|
B|---------------------------------|
G|--6-6-6-6---------9-9-9-9---9----|
D|--6-6-6-6-6-6-6-6-9-9-9-9-9-9-9--|
A|--4-4-4-4-6-6-6-6-7-7-7-7-9-7-9--|
E|----------4-4-4-4---------7---7--|

Outro

e|----------------------------------------------|
B|----------------------------------------------|
G|--6-----9-----6-----9-----6-----9-----6-6-6-6-|
D|--6---9-9-9---6---9-9-9---6---9-9-9---6-6-6-6-|
A|--4---9-7-9---4---9-7-9---4---9-7-9---4-4-4-4-|
E|------7---7-------7---7-------7---7-----------|

************************************

| /   slide up
| \   slide down
| h   hammer-on
| p   pull-off
| ~   vibrato
| +   harmonic
| x   Mute note
| b   Bend
| pb  Pre-bend
| br  Bend release
| pbr Pre-bend release
| brb Bend release bend

************************************
Tap to rate this tab
# A B C D E F G H I J K L M N O P Q R S T U V W X Y Z