Adrian Lux - Teenage Crime tab

-----------------------------------------------------------------------------
			     Teenage Crime - Adrian Lux
-----------------------------------------------------------------------------
Tabbed by: Dan
Email: dangerous_danny@hotmail.com

Tuning: standard

-If you alternate between these two lines it sounds about right
-playing a nylon string gat sounds a lot closer too.

(let notes ring)

e|------------------|----------------|
B|------------------|----------------|
G|------------------|----------------|
D|----0---0---0---0-|--0---0---0---0-|
A|------------------|----------------|
E|--3---3---3---3---|3---3--/5---5---|

e|-----------------------------------|
B|-----------------------------------|
G|-----------------------------------|
D|----0---0---0---0-|--0---0-------0-|
A|-----------------------------4-----|
E|--3---3---3---3---|3---3--/5---5---|

/ slide up


http://www.myspace.com/adrianlux
Tap to rate this tab
 
# A B C D E F G H I J K L M N O P Q R S T U V W X Y Z