Song name
# A B C D E F G H I J K L M N O P Q R S T U V W X Y Z

Adrian Lux - Teenage Crime tab

Tabbed by Michael M

Intro: 0:05 - 0:42
e|------------------|----------------|
B|------------------|----------------|
G|------------------|----------------|
D|----0---0---0---0-|--0---0---0---0-|
A|------------------|----------------|
E|--3---3---3---3---|3---3--/5---5---|

e|------------------------------------|
B|------------------------------------|
G|------------------------------------|
D|----0---0---0---0-|--0---0-----0----|
A|-----------------------------4---4--|
E|--3---3---3---3---|3---3--/5--------|

Chorus: 0:43 - 1:27
e|-----------------------------------------------------------------|
B|-----------------------------------------------------------------|
G|-----------------------------------------------------------------|
D|----0---0---0---0---0---0---0---0---0---0---0---0---0---0---0---0| x5
A|-----------------------------------------------------------------|
E|--3---3---3---3---3---3---3---3---7---7---7---7---0---0---0---0--|

e|------------------------------------------------------------------|
B|------------------------------------------------------------------|
G|------------------------------------------------------------------|
D|----0---0---0---0---0---0---0---0---0---0---0---0---0---0-----0---|
A|------------------------------------------------------------4---4-|
E|--3---3---3---3---3---3---3---3--12--12--12--12--10--10---5-------|

Intro: 1:28 - 1:50
e|------------------|----------------|
B|------------------|----------------|
G|------------------|----------------|
D|----0---0---0---0-|--0---0---0---0-|
A|------------------|----------------|
E|--3---3---3---3---|3---3--/5---5---|

e|------------------------------------|
B|------------------------------------|
G|------------------------------------|
D|----0---0---0---0-|--0---0-----0----|
A|-----------------------------4---4--|
E|--3---3---3---3---|3---3--/5--------|

Chorus: 1:51 - 2:27
e|-----------------------------------------------------------------|
B|-----------------------------------------------------------------|
G|-----------------------------------------------------------------|
D|----0---0---0---0---0---0---0---0---0---0---0---0---0---0---0---0|
A|-----------------------------------------------------------------|
E|--3---3---3---3---3---3---3---3---7---7---7---7---0---0---0---0--|

Outro: 2:27 - 2:49
e|------------------------------------------------------------|
B|------------------------------------------------------------|
G|---------0------------0-------------0-----------------------|
D|----0-------0---0---0---0---0---0------4---0---2---0---2---0|
A|------------------------------2---2-------------------------|
E|--3---3-----------------------------------------------------|

(At 2:13 you begin to hear the outro fade in but you can continue to play the chorus if 
you want because that stops at 2:27)

Enjoy the tab!
Tap to rate this tab
 
# A B C D E F G H I J K L M N O P Q R S T U V W X Y Z