Song name
# A B C D E F G H I J K L M N O P Q R S T U V W X Y Z

Adriana Calcanhoto - Fico Assim Sem Voce tab

-------------------------------------------------------------------------------
Fico Assim Sem Voce-Adriana Calcanhoto
			   
-------------------------------------------------------------------------------
Tabbed by: Duncan Cintron
Email:obviousvladimir@yahoo.com

Tuning: standard EADGBe

 it's not actually played this way and i'm not tabbing the picking cause
that'd take forever (it sounds good if you just keep in time with the bass
and randomly pick the rest), but anyway these are the chords i use.

intro/ verses

e|-----------------------------------1--------------------------------------|
B|------6---------10--------8--------1--------------------------------------|
G|------7---------10--------8--------2--------------------------------------|
D|------7---------10--------8--------3--------------------------------------|
A|--------------------------6-----------------------------------------------|
E|------6---------10-----------------1--------------------------------------|

bridge
e|-------------------------------------------3-------------1----------------|
B|------8----------1--------1--------3-------5-------------1----------------|
G|------8----------2--------2--------3-------3-------------2----------------|
D|------8----------3--------1--------0-------5-------------3----------------|
A|------6------------------------------------3------------------------------|
E|-----------------1--------2--------3---------------------1----------------|

chorus
                                     
e|--------------------------------------------------------------------------|
B|------6--------10--------8-------6---6------------------------------------|
G|------7--------10--------8-------7---5------------------------------------|
D|------7--------10--------8-------7---7------------------------------------|
A|-------------------------6-----------5------------------------------------|
E|------6--------10----------------6----------------------------------------|

(the last 2 chords in the chorus are intermittently switched with F)

Tap to rate this tab
# A B C D E F G H I J K L M N O P Q R S T U V W X Y Z